Song name
# A B C D E F G H I J K L M N O P Q R S T U V W X Y Z

Misc Unsigned Bands - The Anteaters - Yo Got Yo Ups And Downs tab

e-3-3-3--33---2-2-2--22---3-3-3--33-------------------------------------|
b-------------1-1-1--11---------------1-1-1--11-------------------------|
g-------------2-2-2--22---------------------------------------1-1-1--11-|
d-------------------------------------2-2-2--22---2-2-2--22---2-2-2--22-|
a-2-2-2--22---------------2-2-2--22---3-3-3--33---2-2-2--22---2-2-2--22-|
E-3-3-3--33---------------3-3-3--33-------------------------------------|

e-2-2-2--22---3-3-3--33---2-2-2--22---3-3-3--33-------------------------|
b-1-1-1--11---------------1-1-1--11---------------1-1-1--11-------------|
g-2-2-2--22---------------2-2-2--22-------------------------------------|
d-------------------------------------------------2-2-2--22---2-2-2--22-|
a-------------2-2-2--22---------------2-2-2--22---3-3-3--33---2-2-2--22-|
E-------------3-3-3--33---------------3-3-3--33-------------------------|

e-------------------------2-2-2--22----|Then you go back to the beginning and
b-------------------------1-1-1--11----|repeat this asmuch as you want to make
g-1-1-1--11---------------2-2-2--22----|it longer of shorter.
d-2-2-2--22---2-2-2--22----------------|
a-2-2-2--22---2-2-2--22----------------|This is the Anteaters first song that
E--------------------------------------|has thought in it so enjoy.
Tap to rate this tab
 
# A B C D E F G H I J K L M N O P Q R S T U V W X Y Z