Song name
# A B C D E F G H I J K L M N O P Q R S T U V W X Y Z

Misc Unsigned Bands - Silbermond - Symphonie Live Version tab

Highlighted       Show chord diagrams
Symphonie 

Silbermond (Live Version)

 

Riffs nach den Zeilen in der Strophe

 Riff 1 

e |-8-8-6-6--------|     

 

 Riff2 

e |-9-9-8-8--------|

                      

 

 Riff im Refrain nach: 'und es ist besser, wenn du gehst'..

e |-6-4-6-4-6-4-6-4-|

 

 

G#

Sag mir was ist bloß um uns geschehn

            Fm

Du scheinst mir auf einmal völlig fremd zu sein

       C#

Warum geht´s mir nicht mehr gut

             Cm

Wenn ich in deinen Armen liege

        A#m

Ist es egal geworden was mit uns passiert

 

     G#

Wo willst du hin ich kann dich kaum noch sehn

       Fm

Unsere Eitelkeit stellt sich uns in den Weg

         C#                              

Wollten wir nicht alles wagen

       Cm

haben uns vielleicht verraten

         A#m                                 C#

Ich hab geglaubt wir könnten echt alles ertragen

 

 

Ref:

     G#

Symphonie

                    D#

Und jetzt wird es still um uns

                         Fm                          Cm

Denn wir steh´n hier im Regen haben nicht´s mehr zu geben

                           C#    C#/C  A#m

Und es ist besser wenn du gehst

             G#

Denn es ist Zeit

              D# 

Sich einzugestehn dass es nicht geht

                        Fm                 Cm

Es gibt nichts mehr zu reden denn wenn es regnet

                  C#      C#/C  A#m

Ist es besser aufzugeben

 

 

Und es verdichtet sich die Stille über uns

Ich versteh nicht ein Wort mehr aus deinem Mund

Haben wir zu viel versucht

warum konnten wir´s nicht ahnen

Es wird nicht leicht sein das alles einzusehn

 

 

Ref:

Symphonie

Und jetzt wird es still um uns

Denn wir steh´n hier im Regen haben nicht´s mehr zu geben

Und es ist besser wenn du gehst

Symphonie

 

Solo

  C#              C#/C            A#m             G#

|---------------2s4--4--4--4-----4s6---4h6---------|----------------|

|----------------|----------------|----------------|----------------|

|----------------|----------------|----------------|-5--------------|

|----------------|----------------|----------------|----------------|

|----------------|----------------|----------------|----------------|

|----------------|----------------|----------------|----------------|

 

  C#              C#/C            D#sus           D#sus2

|---------------2s4-4--4--4-------|----------------|----------------|

|----------------|----------------|-4--------------|----------------|

|-6--6--6--6-----|----------------|----------------|----------------|

|----------------|----------------|----------------|----------------|

|----------------|----------------|----------------|----------------|

|----------------|----------------|----------------|----------------|

 

 

 

     C#

Irgendwo sind wir gescheitert

              G#

Und so wie´s ist so geht´s nich weiter

         A#m

Das Ende ist schon lang geschrieben

                       (C#)

Und das war unsre....

 

 

Ref:

Symphonie

Und jetzt wird es still um uns

Denn wir steh´n hier im Regen haben nicht´s mehr zu geben

Und es ist besser wenn du gehst

Denn es ist Zeit

Sich ein zu gestehn dass es nicht geht

Es gibt nichts mehr zu reden denn wenn es regnet

 

Tap to rate this tab
# A B C D E F G H I J K L M N O P Q R S T U V W X Y Z