Song name
# A B C D E F G H I J K L M N O P Q R S T U V W X Y Z

Misc Unsigned Bands - The Anteaters - Whatever tab

this is play mostly 16th notes

e-------131313------141414-------15151516161617171718181920--22b-----------]
b-131313------141414-------151515--------------------------------20--------]
g------------------------------------------------------------------19------]
d--------------------------------------------------------------------18----]
a----------------------------------------------------------------------17--]
e------------------------------------------------------------------------16]

e--------------------------------------------------------------------------]
b-----------------------------------------------------------------172018---]
g----------------------------------------------------------161917----------]
d---------------------------------------------------141715-----------------]
a--------------------------------------------121513------------------------]
e1514151413121110111011101110-11-10-11101010-------------------------------]

e------------17-----20-----------------------------------19p16--------------]
b------172018--1619~-----------------------------19p16-18-------------------]
g161917---------------------------------19p16-18----------------------------]
d-------------------------------19p16-18------------------------------------]
a------------------------19p16-18-------------------------------19p16-18----]
e----------------------18-------------------------------------18------------]

e----------------------------19p16----19p16---19p16--19p16--19p16--19p16---]
b-------------------19p16-18-------18-------18-----18-----18-----18--------]
g----------19p16-18--------------------------------------------------------]
d-19p16-18-----------------------------------------------------------------]
a--------------------------------------------------------------------------]
e--------------------------------------------------------------------------]

e--19p16--19p16--19p16--19p16----19p16---19p16--19p16--19p16--19p16--------]
b18-----18-----18-----18-----18-------18-----18-----18-----18--------------]
g--------------------------------------------------------------------------]
d--------------------------------------------------------------------------]
a--------------------------------------------------------------------------]
e--------------------------------------------------------------------------]

e--19p16--19p16--19p16--19p16----19b~~~~-----------------------------------]
b18-----18-----18-----18---------------------------------------------------]
g--------------------------------------------------------------------------]
d--------------------------------------------------------------------------]
a--------------------------------------------------------------------------]
e--------------------------------------------------------------------------]



Tap to rate this tab
 
# A B C D E F G H I J K L M N O P Q R S T U V W X Y Z