Guitaretab - guitar tabs
Song name
# A B C D E F G H I J K L M N O P Q R S T U V W X Y Z

Misc Unsigned Bands - Allette - Unfulfilled Dreams tab

Unfulfilled Dreams
   Allette
  

Intro: 1x
Verse 1: 3x

Guitar 1: P.M. with accents
E||--------------------------------------------------|
B||--------------------------------------------------|
G||--------------------------------------------------|
D||-------14-------14----12-------14-12-------14-12--|
A||-------12-------12----12-------12-12-------12-12--|
D||-12-12-12-12-12-12-12-12-12-12-12-12-12-12-12-12--|

E||--------------------------------------------------|
B||--------------------------------------------------|
G||--------------------------------------------------|
D||----14----14--12----12--11-12-11-12---------------|
A||-----9-----9---9-----9---9--9--9--9---------------|
D||-9-9-9-9-9-9-9-9-9-9-9-9-9--9--9--9---------------|
                                       
                                    4th time end here*
E||--------------------------------------------------|
B||-----7-----7---7-------------7-7-----7-----7---7--|
G||-----7-----7---7-------------7-7-----7-----7---7--|
D||-----5-----5---5-------------5-5-----5-----5---5--|
A||-----5-----5---5-------------5-5-----5-----5---5--|
D||-5-5-5-5-5-5-5-5-5-5-5-5-5-5-5-5-5-5-5-5-5-5-5-5--|

E||-------------------|       
B||-----7-7-----------|
G||-----7-7-----------|
D||-----5-5---2-2-2---|
A||-----5-5---2-2-2---|
D||-5-5-5-5---2-2-2---| 4x

Guitar 2
E||---------------------|
B||----------------(7)--|
G||------(7)---(5)------|
D||----(7)-(7)----------|
A||---------------------|
D||---------------------|

Chours:
[ Tab from: http://www.guitaretab.com/m/misc-unsigned-bands/65763.html ]
Guitar 1: 2x
E||-------------------------------------------------------------------|
B||-------------------------------------7-----7---7---7-7-7-----------|
G||-------------------------------------7-----7---7---7-7-7-----------|
D||-0------2------9----12----11-----5-5-5-5-5-5-5-5---5-5-5---7-7-7-0-|
A||-0------2------9-----9-----9-----5-5-5-5-5-5-5-5---5-5-5---7-7-7-0-|
D||-0(16x)-2(16x)-9(8x)-9(4x)-9(4x)-5-5-5-5-5-5-5-5---5-5-5---7-7-7-0-| 


Interlude:

P.M. and let Ring
E||-----|
B||-----|
G||-----|
D||--0--|
A||--0--|
D||--0--|

Verse 2:

Guitar 1:  P.M. 
E||--------------------------------------------------|
B||--------------------------------------------------|
G||--------------------------------------------------|
D||-0------9------5------2-2-2-----------------------|
A||-0------9------5------2-2-2-----------------------|
D||-0(16x)-9(16x)-5(29x)-2-2-2-----------------------|

Last time hit and let ring.
E||------|
B||------|
G||------|
D||--0---|
A||--0---|
D||--0---|

Guitar 2
E||---------------------|
B||----------------(7)--|
G||------(7)---(5)------|
D||----(7)-(7)----------|
A||---------------------|
D||---------------------|

Chours 2 See Above

Outro:

Guitar 1
E||---------|
B||---------|
G||---------|
D||-12------|
A||-12------|
D||-12(64x)-|

E||-------------------------------------------------|
B||-------------15-------15-------15----14----15----|
G||-------------14-------14-------14----14----14----|
D||-12-12-12-12-12-12-12-12-12-12-12-12-12-12-12-12-|
A||-12-12-12-12-12-12-12-12-12-12-12-12-12-12-12-12-|
D||-12-12-12-12-12-12-12-12-12-12-12-12-12-12-12-12-| 3x

Strum 16th notes with a dance feel, mute notes not on the down beats.
E||-----------------------------------------------------|
B||-15-15-15-15-15-15-14-14-------------15--------------|
G||-14-14-14-14-14-14-14-14-------------14--------------|
D||-12-12-12-12-12-12-12-12-------------12--------------|
A||-12-12-12-12-12-12-12-124x----------12--------------|
D||-12-12-12-12-12-12-12-12-------------12-Open---------|

Related for Allette - Unfulfilled Dreams tab