Song name
# A B C D E F G H I J K L M N O P Q R S T U V W X Y Z

Misc Unsigned Bands - Stripped Of Sanity - Untitled 01 tab

Intro

e-------------------------------------------------------------I
B-------------------------------------------------------------I
G-------------------------------------------------------------I
D-0-0-0-------------------------8-8-8-------------------------I
A-0-0-0-7h8-----5h7-----3h5-----8-8-8-7h8-----5h7-----3h5p3p0-I
D-0-0-0-----0-0-----0-0----0-0--8-8-8-----8-8-----8-8---------I
    . .     . .     . .    . .    . .     . .     . .


e-----------------------------------------------------------------------I
B-----------------------------------------------------------------------I
G-----------------------------------------------------------------------I
D-0-0-0-------------------------8-8-8-8-8-8-8-8-10-10-10-10-10-10-10-10-I
A-0-0-0-7h8-----5h7-----3h5-----8-8-8-8-8-8-8-8-10-10-10-10-10-10-10-10-I
D-0-0-0-----0-0-----0-0----0-0--8-8-8-8-8-8-8-8-10-10-10-10-10-10-10-10-I
    . .     . .     . .    . .  . . . . . . . .  .  .  .  .  .  .  .  . 

Verse


e-------------------------------------------------------I
B-------------------------------------------------------I
G-------------------------------------------------------I
D-0-0-0-0-0-0-0-0-0-0-0-0-0-0-----8-8-------3-3-2-0-0---I
A-0-0-0-0-0-0-0-0-0-0-0-0-0-0-7h8-8-8---7h8-3-3-2-0-0---I
D-0-0-0-0-0-0-0-0-0-0-0-0-0-0-----8-8-------3-3-2-0-0---I x4
    . . . . . . . . . . . . .

Back to the intro

e-------------------------------------------------------------I
B-------------------------------------------------------------I
G-------------------------------------------------------------I
D-0-0-0-------------------------8-8-8-------------------------I
A-0-0-0-7h8-----5h7-----3h5-----8-8-8-7h8-----5h7-----3h5p3p0-I
D-0-0-0-----0-0-----0-0----0-0--8-8-8-----8-8-----8-8---------I
    . .     . .     . .    . .    . .     . .     . .


e-----------------------------------------------------------------------I
B-----------------------------------------------------------------------I
G-----------------------------------------------------------------------I
D-0-0-0-------------------------8-8-8-8-8-8-8-8-10-10-10-10-10-10-10-10-I
A-0-0-0-7h8-----5h7-----3h5-----8-8-8-8-8-8-8-8-10-10-10-10-10-10-10-10-I
D-0-0-0-----0-0-----0-0----0-0--8-8-8-8-8-8-8-8-10-10-10-10-10-10-10-10-I
    . .     . .     . .    . .  . . . . . . . .  .  .  .  .  .  .  .  . 

Verse again...

e-------------------------------------------------------I
B-------------------------------------------------------I
G-------------------------------------------------------I
D-0-0-0-0-0-0-0-0-0-0-0-0-0-0-----8-8-------3-3-2-0-0---I
A-0-0-0-0-0-0-0-0-0-0-0-0-0-0-7h8-8-8---7h8-3-3-2-0-0---I
D-0-0-0-0-0-0-0-0-0-0-0-0-0-0-----8-8-------3-3-2-0-0---I x4
    . . . . . . . . . . . . .


theres more..ill get to it later.
Tap to rate this tab
# A B C D E F G H I J K L M N O P Q R S T U V W X Y Z