Song name
# A B C D E F G H I J K L M N O P Q R S T U V W X Y Z

Misc Unsigned Bands - Glued Soul - Do I Remember tab

'Do I remember' by glued soul


Intro:

e|--------------------------------------------0-------|
B|------------------------------------------1---0-----|
G|--------5-----------7-----------0-------2-------2---|  2x
D|-----7-----------7-----------2--------2-----------0-|
A|--7-----------5-----------2-------------------------|
E|-----------5-----------5-----------0----------------|

then turn on distortion and play:

           Am#                 D#          Em        Am
e|--x--x--x-|-x--x--x-|-x--x--x-|-x--x-|-x--x--x-|-x--x--x-|
B|--x--x--x-|-x--x--x-|-x--x--x-|-x--x-|-x--x--x-|-x--1--1-|
G|--x--x--5p|-x--x--x-|-7--7--7-|-x--x-|-0--0--0-|-2--2--2-|
D|--7--7--7p|-x--x--x-|-7--7--7-|-x--x-|-2--2--2-|-2--2--2-|  3x
A|--7--7--7p|-x--x--x-|-5--5--5-|-x--x-|-2--2--2-|-0--0--0-|
E|--5--5--5p|-x--x--x-|-5--5--5-|-x--x-|-0--0--0-|-x--x--x-|


Verse: (no distortion)

E         F        C      Am
On a late night in MI
E           F        C           Am         
Got my last sight on U-b-ly      undo
G            F           C        Am
I tried hard to be as sad as you
G         F          C          Am
But I was just kinda blue       undo

Refrain: (distorted)

Am#     D#          Em      Am
Cold    hole in my  soul    you undo
Am#     D#          Em      Am
long    run for a   goal    I undo
Am#     D#          Am      Am
Cold    hole in my  soul    I do

Am# D# Em Am 5x


Verse: (no distortion)

E          F          C       Am
Saying goodbye, was a lie
E         F            C       Am
I did not know, I would die    undo
G           F            C       Am
Here we are searching for us
G          F            C            Am
Here I am like a fly with no buzz    undo

Refrain 2x

outro

Am#    D#                Em         Am
lost   dream and I am    old     not with you

Have Fun!

For questions:
glued_soul@gmx.net
Tap to rate this tab
 
# A B C D E F G H I J K L M N O P Q R S T U V W X Y Z