Song name
# A B C D E F G H I J K L M N O P Q R S T U V W X Y Z

Misc Unsigned Bands - Dysfunction - Hope tab

|-----------------------------------------------------|
|-----------------------------------------------------|
|-----------------------------------------------------|
|-----------------------------------------------------|
|---------------4-4-5-5--0--0-0-0-0-0--0--0-0-0-0-0---|
|-2--2--2-2-2-2-------------------------------------2-|

|-----------------------------------------------------------------|
|-----------------------------------------------------------------|
|-----------------------------------------------------------------|
|-----------------------------------------------------------------|
|-4-4-5-5--0--0--0-0-0-0--0-0-0-0-0--0--2--2-2--2-2-2--2--2-2-0-0-|
|-----------------------------------------------------------------|

|-------------------------------------------------------|
|-------------------------------------------------------|
|-------------------------------------------------------|
|--------------------7--7-5-----------------------------|
|-5--5-5--5-5-5--5-5--------7--2--2-2--2-2--2-2-2-2-2-2-|
|-------------------------------------------------------|

this song is just these riffs played in this order 23 times
and it is at 500 beats per minute or 500 notes per minutes(bpm/npm)
Tap to rate this tab
# A B C D E F G H I J K L M N O P Q R S T U V W X Y Z