Song name
# A B C D E F G H I J K L M N O P Q R S T U V W X Y Z

Misc Unsigned Bands - Dysfunction - Crash tab

this is the greatest song that we have come up with so far and on our other songs we
just do either stupid things or take songs from other people and tweek them a little
so that they are not the exact same and we change the rythym of them too.

                                  Crash!

Guitar I(E,A,D,G,B,e)

intro               x4
|-----------------------|
|-----------------------|
|-(6)---6---6h7p6---7-6-|
|-----6---6-------6-----|
|-----------------------|
|-----------------------|play the (6) note only on the first time

verse                        x4
|---------------------------------|
|---------------------------------|
|---------------------------------|
|---------------------------------|
|-7-0-7-0-7-0-7-0-6-0-6-0-6-0-6-0-|
|---------------------------------|

pre-chorus        x2
|----------------------|
|----------------------|
|----------------------|
|----------------------|
|-0--0-4--4-5-4-5-4-5~-|
|----------------------|

Chorus                       x2
|-------------------------------|
|-------------------------------|
|-------------------------------|
|-------------------------------|
|-0000-3h5-0000-3h5-0000-3h5-7~-|
|-------------------------------|

verse                       x4
|---------------------------------|
|---------------------------------|
|---------------------------------|
|---------------------------------|
|-5-0-5-0-5-0-5-0-4-0-4-0-4-0-4-0-|
|---------------------------------|

Pre-chorus
|--------------------------------------------|
|--------------------------------------------|
|--------------------------------------------|
|--------------------------------------------|
|-0--0-4--4-5-4-5-4-5~--0--0-4--4-5-4-5-4----|
|-----------------------------------------5~-|

Chorus                       x2
|-------------------------------|
|-------------------------------|
|-------------------------------|
|-------------------------------|
|-0000-3h5-0000-3h5-0000-3h5-7~-|
|-------------------------------|

interlude           x4
|-----------------------|
|-(8)---8---8h9p8---9-8-|
|-----8---8-------8-----|
|-----------------------|
|-----------------------|
|-----------------------|(8)=play first time only

verse      x4 ()=slow down gradually
|-----------------------------------|
|-----------------------------------|
|-----------------------------------|
|-----------------------------------|
|-(9-0-9-0-9-0-9-0-8-0-8-0-8-0-8-0)-|
|-----------------------------------|

Bridge(slow)
|-----------------------------------|
|-----------------------------------|
|---------2-------------------------|
|---2---2---2-----------2------2----|
|-2---2-------2---2---2---1~-2------|
|---------------2---2------------0w-|

Chorus(same speed as beginning) x2
|-------------------------------|
|-------------------------------|
|-------------------------------|
|-------------------------------|
|-0000-3h5-0000-3h5-0000-3h5-7~-|
|-------------------------------|

solo                 x3
|-----------------------------|
|-------12-13-------12-13-----|
|-12-13-------12-13-------12~-|
|-----------------------------|
|-----------------------------|
|-----------------------------|(supposed to sound egyptian-like(solo))

verse                    x4
|---------------------------------|
|---------------------------------|
|---------------------------------|
|---------------------------------|
|-7-0-7-0-7-0-7-0-6-0-6-0-6-0-6-0-|
|---------------------------------|
  . . . . . . . . . . . . . . . .

Chorus                       x2
|-------------------------------|
|-------------------------------|
|-------------------------------|
|-------------------------------|
|-0000-3h5-0000-3h5-0000-3h5-7~-|
|-------------------------------|
  ....     ....     ....     .

Pre-chorus        x2
|----------------------|
|----------------------|
|----------------------|
|----------------------|
|-0--0-4--4-5-4-5-4-5~-|
|----------------------|

outro
|-----------|
|-----9--9~-|
|---8----8~-|
|-7------7~-|
|-----------|
|-----------|
Tap to rate this tab
# A B C D E F G H I J K L M N O P Q R S T U V W X Y Z