Song name
# A B C D E F G H I J K L M N O P Q R S T U V W X Y Z

Misc Unsigned Bands - The Red Flame - Ashes In The Fire tab

Song:Ashes in the Fire
Writer:Matt Hare
Album:The Red Flame



#--------------------------------#
#note:this is the authors work and#
#any copying is prohibited.      #
#--------------------------------#


Guitar I(DGDGBE)Distortion
Guitar II(DGDGBE)Distortion
(both play same thing)

Intro
|-------------------------------------------------|
|-------------------------------------------------|
|-------------------------------------------------|
|-------------------------------------------------|
|-444-444-444-444-333-333-333-333-222-222-222-222-|
|-222-222-222-222-111-111-111-111-000-000-000-000-|

|-------------------------------------------------|
|-------------------------------------------------|
|-------------------------------------------------|
|-------------------------------------------------|
|-444-444-444-444-333-333-333-333-222-222-222-222-|
|-222-222-222-222-111-111-111-111-000-000-000-000-|

|-------------------------------------------------|
|-------------------------------------------------|
|-------------------------------------------------|
|-------------------------------------------------|
|-444-444-444-444-333-333-333-333-222-222-222-222-|
|-222-222-222-222-111-111-111-111-000-000-000-000-|

|-------------------------------------------------|
|-------------------------------------------------|
|-------------------------------------------------|
|-------------------------------------------------|
|-444-444-444-444-333-333-333-333-222-222-222-222-|
|-222-222-222-222-111-111-111-111-000-000-000-000-|

|-------------------------------------|------|
|-889-889-889-889-889-889-889-889-889-|-889~-|
|-------------------------------------|------|
|-------------------------------------|------|
|-------------------------------------|------|
|-------------------------------------|------|

|-------------------------------------------------|
|-------------------------------------------------|
|-------------------------------------------------|
|-------------------------------------------------|
|-444-444-444-444-333-333-333-333-222-222-222-222-|
|-222-222-222-222-111-111-111-111-000-000-000-000-|

|-------------------------------------------------|
|-------------------------------------------------|
|-------------------------------------------------|
|-------------------------------------------------|
|-444-444-444-444-333-333-333-333-222-222-222-222-|
|-222-222-222-222-111-111-111-111-000-000-000-000-|

|-------------------------------------------------|
|-------------------------------------------------|
|-------------------------------------------------|
|-------------------------------------------------|
|-444-444-444-444-333-333-333-333-222-222-222-222-|
|-222-222-222-222-111-111-111-111-000-000-000-000-|

|-------------------------------------------------|
|-------------------------------------------------|
|-------------------------------------------------|
|-------------------------------------------------|
|-444-444-444-444-333-333-333-333-222-222-222-222-|
|-222-222-222-222-111-111-111-111-000-000-000-000-|

|-------------------------------------|
|-------------------------------------|
|-------------------------------------|
|-------------------------------------|
|-------------------------------------|
|-12/1(tremolo pick during the slide)-|

|-----------------|
|-----------------|
|-----------------|
|-----------------|
|-55-66-77-44~----|
|-33-44-55-22~-0w-|

|------------------------------------------------|
|------------------------------------------------|
|------------------------------------------------|
|------------------------------------------------|
|------------------------------------------------|
|-7878787878787878787878787878787878787878787878-|


verse
|------------------------------------------------------------------------|
|------------------------------------------------------------------------|
|------------------------------------------------------------------------|
|------------------------------------------------------------------------|
|-00000000-3333-5555-00000000-3333-5555-00000000-3333-5555-00000000-3333-|
|------------------------------------------------------------------------|

|---------------------------------------------------------------|
|---------------------------------------------------------------|
|---------------------------------------------------------------|
|---------------------------------------------------------------|
|-5555-00000000-3333-5555-00000000-3333-5555-00000000-3333-5555-|
|---------------------------------------------------------------|

pre-chorus
|---------------------------------------|
|---------------------------------------|
|---------------------------------------|
|-00000000-3333-5555-00000000-3333-5555-|
|-00000000-3333-5555-00000000-3333-5555-|
|---------------------------------------|

Chorus
|----------------------------------------|
|----------------------------------------|
|----------------------------------------|
|----------------------------------------|
|-55-6666-44-5-55-6666-44-5-55-6666-44-5-|
|-55-6666-44-5-55-6666-44-5-55-6666-44-5-|

Pre-verse
|-----|
|-----|
|-----|
|-----|
|-555-|
|-555-|

verse
|------------------------------------------------------------------------|
|------------------------------------------------------------------------|
|------------------------------------------------------------------------|
|------------------------------------------------------------------------|
|-00000000-3333-5555-00000000-3333-5555-00000000-3333-5555-00000000-3333-|
|------------------------------------------------------------------------|

|---------------------------------------------------------------|
|---------------------------------------------------------------|
|---------------------------------------------------------------|
|---------------------------------------------------------------|
|-5555-00000000-3333-5555-00000000-3333-5555-00000000-3333-5555-|
|---------------------------------------------------------------|

pre-chorus
|------------------------------------------|
|------------------------------------------|
|------------------------------------------|
|-00000000-3333-5555-00000000-3333-5555-7~-|
|-00000000-3333-5555-00000000-3333-5555-7~-|
|------------------------------------------|

Chorus
|----------------------------------------|
|----------------------------------------|
|----------------------------------------|
|----------------------------------------|
|-55-6666-44-5-55-6666-44-5-55-6666-44-5-|
|-55-6666-44-5-55-6666-44-5-55-6666-44-5-|

interlude
|-----------------------------------------------------------------|
|-----------------------------------------------------------------|
|-----------------------------------------------------------------|
|-----------------------------------------------------------------|
|-----------------2-0-2-0-2-0-2-0-----------------2-0-2-0-2-0-2-0-|
|-2-0-2-0-2-0-2-0-----------------2-0-2-0-2-0-2-0-----------------|

|-----------------------------------------------------------------|
|-----------------------------------------------------------------|
|-----------------------------------------------------------------|
|-----------------------------------------------------------------|
|-----------------2-0-2-0-2-0-2-0-----------------2-0-2-0-2-0-2-0-|
|-2-0-2-0-2-0-2-0-----------------2-0-2-0-2-0-2-0-----------------|

|---------------------------------|
|---------------------------------|
|---------------------------------|
|---------------------------------|
|-----------------2-0-2-0-2-0-2-0-|
|-2-0-2-0-2-0-2-0-----------------|

verse
|------------------------------------------------------------------------|
|------------------------------------------------------------------------|
|------------------------------------------------------------------------|
|------------------------------------------------------------------------|
|-00000000-3333-5555-00000000-3333-5555-00000000-3333-5555-00000000-3333-|
|------------------------------------------------------------------------|

|---------------------------------------------------------------|
|---------------------------------------------------------------|
|---------------------------------------------------------------|
|---------------------------------------------------------------|
|-5555-00000000-3333-5555-00000000-3333-5555-00000000-3333-5555-|
|---------------------------------------------------------------|

pre-chorus
|---------------------------------------|
|---------------------------------------|
|---------------------------------------|
|-00000000-3333-5555-00000000-3333-5555-|
|-00000000-3333-5555-00000000-3333-5555-|
|---------------------------------------|

Chorus
|----------------------------------------|
|----------------------------------------|
|----------------------------------------|
|----------------------------------------|
|-55-6666-44-5-55-6666-44-5-55-6666-44-5-|
|-55-6666-44-5-55-6666-44-5-55-6666-44-5-|

pre-solo
|-------------------------------------------------------------------------|
|-12-12-12-12-14-14-15-15-12-12-12-12-14-14-15-15-10-10-10-10-12-12-13-13-|
|-------------------------------------------------------------------------|
|-------------------------------------------------------------------------|
|-------------------------------------------------------------------------|
|-------------------------------------------------------------------------|

solo
|-------------------------------------------------------------------------|
|-12-12-12-12-13-13-13-13-11-11-11-11-12-12-12-12-13-13-13-13-10-10-10-10-|
|-------------------------------------------------------------------------|
|-------------------------------------------------------------------------|
|-------------------------------------------------------------------------|
|-------------------------------------------------------------------------|

|-----|
|-11~-|
|-----|
|-----|
|-----|
|-----|

verse
|------------------------------------------------------------------------|
|------------------------------------------------------------------------|
|------------------------------------------------------------------------|
|------------------------------------------------------------------------|
|-00000000-3333-5555-00000000-3333-5555-00000000-3333-5555-00000000-3333-|
|------------------------------------------------------------------------|

|---------------------------------------------------------------|
|---------------------------------------------------------------|
|---------------------------------------------------------------|
|---------------------------------------------------------------|
|-5555-00000000-3333-5555-00000000-3333-5555-00000000-3333-5555-|
|---------------------------------------------------------------|

pre-chorus
|---------------------------------------|
|---------------------------------------|
|---------------------------------------|
|-00000000-3333-5555-00000000-3333-5555-|
|-00000000-3333-5555-00000000-3333-5555-|
|---------------------------------------|

end on
|----|
|----|
|----|
|-7~-|
|-7~-|
|----|
Tap to rate this tab
# A B C D E F G H I J K L M N O P Q R S T U V W X Y Z