Song name
# A B C D E F G H I J K L M N O P Q R S T U V W X Y Z

Misc Unsigned Bands - The Blacktop June - A Wing The Prayer And A Cause tab


ITS PALMED IN THE BEGGINING

D  POWER CORD THEN

C#  POWER CORD

G POWER CORD

CHORUS

D POWER CORD

F POWER CORD

G POWER CORD.................................


SOLO

E----------------------------------------------------------------------------------|
B----------------7--10--------7--10------------------------------------------------|
G----------7--9---------7--9----------7--6-----444--666--777777--------------------|
D----------------------------------------------------------------------------------|
A----------------------------------------------------------------------------------|
E----------------------------------------------------------------------------------|


E--------------------------7-------7-----------------------------------------|
B-------------7--10---10------10------10----------7--10----------------------|
G------7--9---------------------------------7--9----------7--6---------------|
D----------------------------------------------------------------------------|
A----------------------------------------------------------------------------|
E----------------------------------------------------------------------------|


E--------------------------------------------------------------------------|
B--------------------------------------------------------------------------|
G---------6-444-666-777----------------------------------------------------|
D--------------------------------------------------------------------------|
A--------------------------------------------------------------------------|
E--------------------------------------------------------------------------|


THEN PLAY THE BEGGING PART PALMED AGAIN IM SURE THAT IS ALL PEACE OUT  HOMIESSS
Tap to rate this tab
 
# A B C D E F G H I J K L M N O P Q R S T U V W X Y Z