Song name
# A B C D E F G H I J K L M N O P Q R S T U V W X Y Z

Misc Unsigned Bands - Fiveboltmain - Slip tab

intro/chorus
e(-------------------------)
b(-------------------------)
g(-------------------------)
d(--9999-8888-10101010-989-)
a(--7777-6666-8-8-8-8--767-)
D(-------------------------)

verse        2nd verse
e(--------)(----------5-)
b(--------)(----------5-)
g(--6-7-4-)(------------)
d(--6-7-4-)(--5-6-8-9---)
a(--4-5-2-)(--3-4-6-7---)
D(--------)(------------)

breakdown
e(-----------------------------------------)
b(-----------------------------------------)
g(----9----9---------7---------------7-9---)
d(--5-9----9-8h9-7-9---7-5-5-8h9-7-9-----5-)
a(--3-7----7---------------3---------------)
D(-----------------------------------------)

breakdown continued
e(-------------------------------------------------)
b(-------------------------------------------------)
g(--9-9-9-999-9-9-9-999-7-7-777-77-12-10-7-12-10-7-)
d(--9-9-9-999-9-9-9-999-7-7-777-77-12-10-7-12-10-7-)
a(--7-7-7-777-7-7-7-777-5-5-555-55-10--9-5-10--9-5-)
D(-------------------------------------------------)

breakdown continued                             (x6)
e(------------------------------------------)(--------)(-----)
b(------------------------------------------)(--------)(--12-)
g(--9-9-9-999-9-9-9-999-7-7-777-77-77777777-)(--------)(--12-)
d(--9-9-9-999-9-9-9-999-7-7-777-77-77777777-)(--10/12-)(-----)
a(--7-7-7-777-7-7-7-777-5-5-555-55-55555555-)(---9/10-)(-----)
D(------------------------------------------)(--------)(-----)
Tap to rate this tab
# A B C D E F G H I J K L M N O P Q R S T U V W X Y Z