Guitaretab - guitar tabs
Song name
# A B C D E F G H I J K L M N O P Q R S T U V W X Y Z

Misc Unsigned Bands - Fiveboltmain - Seem To Bo Fine tab

intro/verse x2          (x2)           (x2)
eb(------------------------)(------------------------)
bb(------------------------)(------------------------)
F (----0-----0-----0---0---)(----0-----0-----0---0---)
db(------------------------)(--6---677---799---9---9-)
ab(------------------------)(--4---455---577---7---7-)
Db(--0---011---133---3---3-)(------------------------)

chorus x4
eb(--------------------)
bb(--------------------)
F (--------------------)
db(--6-66-7-77-9-997-7-)
ab(--4-44-5-55-7-775-5-)
Db(--------------------)
[ Tab from: http://www.guitaretab.com/m/misc-unsigned-bands/66058.html ]
breakdown
eb(-------------------------------------------------)
bb(-------------------------------------------------)
F (-------------------------------------------------)
db(--66-677-766-66-677-766-66-677-766-44-66-677-776-)
ab(--44-455-544-44-455-544-44-455-544-22-44-455-554-)
Db(-------------------------------------------------)
                                    pm..

breakdown continued 
eb(-----------------------)(----------------------)
bb(-----------------------)(----------------------)
F (---------0-----0-----0-)(----------------------)
db(--444-66---677---766---)(--66-677-7-7777777777-)
ab(--222-44---455---544---)(--44-455-5-5555555555-)
Db(-----------------------)(----------------------)
   pm...

solo             (x3)
eb(-------------------)(-------------------)
bb(--32-225-55b-3b-32-)(--32-225-553-3-012-)
F (-------------------)(-------------------)
db(-------------------)(-------------------)
ab(-------------------)(-------------------)
Db(-------------------)(-------------------)
Related for Fiveboltmain - Seem To Bo Fine tab
×
Fiveboltmain - Seem To Bo Fine