Guitaretab - guitar tabs
Song name
# A B C D E F G H I J K L M N O P Q R S T U V W X Y Z

Misc Unsigned Bands - Melmac - George Bailey Vs The World tab

George Bailey Vs. The World
Artist: Melmac
Tabbed by: Ethan Miklancic

I tabbed this for somebody on the forum. Its played in drop D tuning (DADGBe). The
strumming on this tab isn't perfect, but if you listen to the song you'll get it.

You can listen to this song at... http://www.purevolume.com/melmac

e ----------------------------------------------------------------------------|
B ----------------------------------------------------------------------------|
G ----------------------------------------------------------------------------|
D 0-0-00-0h5-5-5-55-55-77-7-7-7-12-12-1212/11-10-10-1010-1010-5-5-5-55-77-7-7-|
A 0-0-00-0h5-5-5-55-55-77-7-7-7-12-12-1212/11-10-10-1010-1010-5-5-5-55-77-7-7-|
D 0-0-00-0h5-5-5-55-55-77-7-7-7-12-12-1212/11-10-10-1010-1010-5-5-5-55-77-7-7-|

e ----------------------------------------------------------------------------|
B ----------------------------------------------------------------------------|
G ----------------------------------------------------------------------------|
D 0-0-00-0h5-5-5-55-55-77-7-7-7-12-12-1212/11-10-10-1010-1010-5-5-5-55-77-7-7-|
A 0-0-00-0h5-5-5-55-55-77-7-7-7-12-12-1212/11-10-10-1010-1010-5-5-5-55-77-7-7-|
D 0-0-00-0h5-5-5-55-55-77-7-7-7-12-12-1212/11-10-10-1010-1010-5-5-5-55-77-7-7-|

e --------------------------------------------|
B --------------------------------------------|
G --------------------------------------------|
D 0--------5--------10--------5---------7-7-0-|
A 0--------5--------10--------5---------7-7-0-|
D 0--------5--------10--------5---------7-7-0-|

e -------------------------------------------|
B -------------------------------------------|
G -------------------------------------------|
D 0--------5--------10-------(5)--------7----|
A 0--------5--------10-------(5)--------7----|
D 0--------5--------10-------(5)--------7----|

e ---------------------------------------------|
B ---------------------------------------------|
G ---------------------------------------------|
D 0-0-0-00-55-5-5-5-10-10-10-1010-55-5-5-7-7-0-|
A 0-0-0-00-55-5-5-5-10-10-10-1010-55-5-5-7-7-0-|
D 0-0-0-00-55-5-5-5-10-10-10-1010-55-5-5-7-7-0-|

e ---------------------------------------------|
B ---------------------------------------------|
G ---------------------------------------------|
D 0-0-0-00-55-5-5-5(10)----------(5)-----7---0-|
A 0-0-0-00-55-5-5-5(10)----------(5)-----7---0-|
D 0-0-0-00-55-5-5-5(10)----------(5)-----7---0-|

e ----------------------------------------------------------------------------|
B ----------------------------------------------------------------------------|
G ----------------------------------------------------------------------------|
D 0-0-00-0h5-5-5-55-55-77-7-7-7-12-12-1212/11-10-10-1010-1010-5-5-5-55-77-7-7-|
A 0-0-00-0h5-5-5-55-55-77-7-7-7-12-12-1212/11-10-10-1010-1010-5-5-5-55-77-7-7-|
D 0-0-00-0h5-5-5-55-55-77-7-7-7-12-12-1212/11-10-10-1010-1010-5-5-5-55-77-7-7-|

e ----------------------------------------------------------------------------|
B ----------------------------------------------------------------------------|
G ----------------------------------------------------------------------------|
D 0-0-00-0h5-5-5-55-55-77-7-7-7-12-12-1212/11-10-10-1010-1010(5)--------------|
A 0-0-00-0h5-5-5-55-55-77-7-7-7-12-12-1212/11-10-10-1010-1010(5)--------------|
D 0-0-00-0h5-5-5-55-55-77-7-7-7-12-12-1212/11-10-10-1010-1010(5)----------7/0-|

e ---------------------------------------------|
B ---------------------------------------------|
G ---------------------------------------------|
D 0-0-0-00-55-5-5-5-10-10-10-1010-55-5-5-7-7-0-|
A 0-0-0-00-55-5-5-5-10-10-10-1010-55-5-5-7-7-0-|
D 0-0-0-00-55-5-5-5-10-10-10-1010-55-5-5-7-7-0-|

e ---------------------------------------------|
B ---------------------------------------------|
G ---------------------------------------------|
D 0-0-0-00-55-5-5-5-10-10-10-1010-55-5-5-7-7-0-|
A 0-0-0-00-55-5-5-5-10-10-10-1010-55-5-5-7-7-0-|
D 0-0-0-00-55-5-5-5-10-10-10-1010-55-5-5-7-7-0-|

e --------------------------------------------|
B --------------------------------------------|
G --------------------------------------------|
D 0--------5--------10--------5---------7-7-0-|
A 0--------5--------10--------5---------7-7-0-|
D 0--------5--------10--------5---------7-7-0-|

e -------------------------------------------|
B -------------------------------------------|
G -------------------------------------------|
D 0--------5--------10-------(5)--------7----|
A 0--------5--------10-------(5)--------7----|
D 0--------5--------10-------(5)--------7----|

e ---------------------------------------------|
B ---------------------------------------------|
G ---------------------------------------------|
D 0-0-0-00-55-5-5-5-10-10-10-1010-55-5-5-7-7-0-|
A 0-0-0-00-55-5-5-5-10-10-10-1010-55-5-5-7-7-0-|
D 0-0-0-00-55-5-5-5-10-10-10-1010-55-5-5-7-7-0-|
[ Tab from: http://www.guitaretab.com/m/misc-unsigned-bands/66065.html ]
  Pam mute the notes with the *
e ------------------------------------------------------------------------|
B ------------------------------------------------------------------------|
G ------------------------------------------------------------------------|
D ------------------------------------------------------------------------|
A ------------------------------------------------------------------------|
D 0-0-0-0-0-0-0-0-5-5-5-5-5-5-5-5-10-10-10-10-10-10-10-10-5-5-5-5-5-5-5-5-|
  * * * * * * * * * * * * * * * * *  *  *  *  *  *  *  *  * * * * * * * *

e -------------------------------------------------------|
B -------------------------------------------------------|
G -------------------------------------------------------|
D -------------------------------(10)--------------------|
A -------------------------------(10)--------------------|
D 0-0-0-0-0-0-0-0-5-5-5-5-5-5-5-5(10)--------------------|
  * * * * * * * * * * * * * * * *

  Then use alternate picking for this next little fill...
e ---------------------|
B ---------------------|
G ---------------------|
D ---------------------|
A ---------------------|
D 10-9-8-7-6-5-4-3-2-0-|

e ----------------------------------------------------------------------------|
B ----------------------------------------------------------------------------|
G ----------------------------------------------------------------------------|
D 0-0-00-0h5-5-5-55-55-77-7-7-7-12-12-1212/11-10-10-1010-1010-5-5-5-55-77-7-7-|
A 0-0-00-0h5-5-5-55-55-77-7-7-7-12-12-1212/11-10-10-1010-1010-5-5-5-55-77-7-7-|
D 0-0-00-0h5-5-5-55-55-77-7-7-7-12-12-1212/11-10-10-1010-1010-5-5-5-55-77-7-7-|

e ----------------------------------------------------------------------------|
B ----------------------------------------------------------------------------|
G ----------------------------------------------------------------------------|
D 0-0-00-0h5-5-5-55-55-77-7-7-7-12-12-1212/11-10-10-1010-1010(5)--------------|
A 0-0-00-0h5-5-5-55-55-77-7-7-7-12-12-1212/11-10-10-1010-1010(5)--------------|
D 0-0-00-0h5-5-5-55-55-77-7-7-7-12-12-1212/11-10-10-1010-1010(5)----------7/0-|

e ----------------------------------------------------------------|
B ----------------------------------------------------------------|
G ----------------------------------------------------------------|
D 0---------------------------------------------------------------|
A 0---------------------------------------------------------------|
D 0-0-0-0-0-0-0-0-0-0-0-0-0-0-0-0-0-0-0-0-0-0-0-0-0-0-0-0-0-0-0-0-|
  * * * * * * * * * * * * * * * * * * * * * * * * * * * * * * * *

e ------------------------------------------------------------------------|
B ------------------------------------------------------------------------|
G ------------------------------------------------------------------------|
D 0-----0-----0---5-----5-----5---10-------10-------10----5-----5-----5---|
A 0-----0-----0---5-----5-----5---10-------10-------10----5-----5-----5---|
D 0-0-0-0-0-0-0-0-5-5-5-5-5-5-5-5-10-10-10-10-10-10-10-10-5-5-5-5-5-5-5-5-|
    * *   * *   *   * *   * *   *    *  *     *  *     *    * *   * *   *

  do NOT palm mute these now...
e ------------------------------------------------------------------------|
B ------------------------------------------------------------------------|
G ------------------------------------------------------------------------|
D 0-----0-----0---5-----5-----5---10-------10-------10----5-----5-----5---|
A 0-----0-----0---5-----5-----5---10-------10-------10----5-----5-----5---|
D 0-0-0-0-0-0-0-0-5-5-5-5-5-5-5-5-10-10-10-10-10-10-10-10-5-5-5-5-5-5-5-5-|

e ------------------------------------------------------------------------|
B ------------------------------------------------------------------------|
G ------------------------------------------------------------------------|
D 0-----0-----0---5-----5-----5---10-------10-------10----5-----5-555-5-5-|
A 0-----0-----0---5-----5-----5---10-------10-------10----5-----5-555-5-5-|
D 0-0-0-0-0-0-0-0-5-5-5-5-5-5-5-5-10-10-10-10-10-10-10-10-5-5-5-5-555-5-5-|

e ---------------------------------------------|
B ---------------------------------------------|
G ---------------------------------------------|
D 0-0-0-00-55-5-5-5-10-10-10-1010-55-5-5-5-5-0-|
A 0-0-0-00-55-5-5-5-10-10-10-1010-55-5-5-5-5-0-|
D 0-0-0-00-55-5-5-5-10-10-10-1010-55-5-5-5-5-0-|

e ---------------------------------------------|
B ---------------------------------------------|
G ---------------------------------------------|
D 0-0-0-00-55-5-5-5-10-10-10-1010-55-5-5-5-5-0-|
A 0-0-0-00-55-5-5-5-10-10-10-1010-55-5-5-5-5-0-|
D 0-0-0-00-55-5-5-5-10-10-10-1010-55-5-5-5-5-0-|

e ---------------------------------------------|
B ---------------------------------------------|
G ---------------------------------------------|
D 0-0-0-00-55-5-5-5-10-10-10-1010-55-5-5-7-7-0-|
A 0-0-0-00-55-5-5-5-10-10-10-1010-55-5-5-7-7-0-|
D 0-0-0-00-55-5-5-5-10-10-10-1010-55-5-5-7-7-0-|

e ---------------------------------------------|
B ---------------------------------------------|
G ---------------------------------------------|
D 0-0-0-00-55-5-5-5(10)-----------55-5-5-7-7-0-|
A 0-0-0-00-55-5-5-5(10)-----------55-5-5-7-7-0-|
D 0-0-0-00-55-5-5-5(10)-----------55-5-5-7-7-0-|
Related for Melmac - George Bailey Vs The World tab
Advertisement will be closed in 10 seconds