Song name
# A B C D E F G H I J K L M N O P Q R S T U V W X Y Z

Misc Unsigned Bands - Pagoda - Death To Birth tab

this is the actor Michael Pitts band. this is the bands version of the song Death to 
not the version that was in the film Last Days.

Chords = Am, E, F, G.

e-----------------------------------------------------------3-----|
b------1------1------0------0--------1------1-------0------0-0----|
g-----2-2----2-2----1-1----1-1------2-2----2-2-----0-0----0-------|
d----2---2--2---2--2---2--2---2----3---3--3---3-------0-----------|
a---0------0------2------2--------0------0--------2------2--------|
E------------------------------------------------3------3---------|  x3


e------0------0------0------0----------1------1------3---3330-----|
b------1------1------0------0----------1------1------0---000-0----|
g-----2-2----2-2----1-1----1-1--------2-2----2-2----0-------------|
d----2---2--2---2--2---2--2---2------3---3--3---3-----------------|
a---0------0------2------2----------0------0-------2--------------|
E-------------------------------------------------3---------------|


e--------------------------11------33--|
b-------11-----------------11------00--|
g-----2-22-----1-11------2-22----0-00--|
d----2--22----2--22-----3--33----------|
a---0--------2---22----0--------2------|
E------------------------------3-------|  x5


e-----------1---3-----------1---3--3----|
b---1---0---1---0---1---0---1---0---0---|
g---2---1---2---0---2---1---2---0----0--|
d---2---2---3---0---2---2---3---0-------|
a---0---2-------2---0---2-------2-------|
E---------------3---------------3-------|


e----0-------0------11------33----------|
b---1-1-----0-0-----1-1-----0-0---------|
g---2--2----1--1----2--2----0--0--------|
d---2---2---2---2---3---3---0---0-------|
a---0----0--2----2-------0--2----2------|
E---------------------------3-----------|  x2


e---------------------11111111-33333333-|
b---11111111-00000000-11111111-00000000-|
g---22222222-11111111-22222222-00000000-|
d---22222222-22222222-33333333-00000000-|
a---00000000-22222222----------22222222-|
E------------------------------33333333-|  x4


e-----------1---3-3333----------1---3-3333-3-3333-|
b---1---0---1---0-0000--1---0---1---0-0000-0-0000-|
g---2---1---2---0-------2---1---2---0------0------|
d---2---2---3---0-------2---2---3---0------0------|
a---0---2-------2-------0---2-------2------2------|
E---------------3-------------------3------3------|


e-------------------------1---1111---3---3333---------3--|
b---1---1111---0---0000---1---1111---0---0000---------0--|
g---2---2222---1---1111---2---2222---0---0000---------0--|
d---2---2222---2---2222---3---3333---0---0000---------0--|
a---0---0000---2---2222--------------2---2222---------2--|
E------------------------------------3---3333--X2-----3--|


e---------------------11111111-33333333------|
b---11111111-00000000-11111111-00000000------|
g---22222222-11111111-22222222-00000000------|
d---22222222-22222222-33333333-00000000------|
a---00000000-22222222----------22222222------|	X8
E------------------------------33333333------|

Some bits here are strummed a bit more. You’ll work it out.


e-----0---0—-1-1--3-3---------------0--------|
b---1---0----1----0----------------1---------|
g---2---1----2----0---------------2----------|
d---2---2----3----0--------------2-----------|
a---0---2---------2-------------0------------|
E-----------------3-----X2-----0-------------|     END.


Phew. it should be near enough 100% correct.

here is the offical band website: www.pagodaonline.com
Tap to rate this tab
# A B C D E F G H I J K L M N O P Q R S T U V W X Y Z