Song name
# A B C D E F G H I J K L M N O P Q R S T U V W X Y Z

Misc Unsigned Bands - To No Avail - American Needlework tab

ok now i dont have everything down but i'll update it as i go along

artist: to no avail
album: death to our dreams
tunning: dropped c (cgcfad)

ok here's wuts i got

GTR                      (they both work)
|---------------------------------    |-------------------------------------|
|---------------------------------    |-------------------------------------|
|---------------------------------    |-------------------------------------|
|-0-0-0-0-0-0-0-0-0-0-0-0-0-0-0-0- Or |-0~----------------------------------|
|-0-0-0-0-0-0-0-0-0-0-0-0-0-0-0-0-    |-0~----------------------------------|
|-0-0-0-0-0-0-0-0-0-0-0-0-0-0-0-0-    |-0~----------------------------------|

GTR (X6, or around there)
|-----------------------------------------|
|-----------------------------------------|
|---------14-----------19-19-19-19-19-19--|
|-0-0--0---x-0-0--0-0---x--x--x--x--x--x--|
|-0-0--0--13-0-0--0-0--18-18-18-18-18-18--|
|-0-0--0-0---0-0--0-0-0-------------------|

GTR
|---------------------------------------------------------------------------|
|---------------------------------------------------------------------------|
|---------------------------------------------------------------------------|
|-2~-----------1~-------------2~-----------1~----------2~----------1~-------|
|-2~-----------1~-------------2~-----------1~----------2~----------1~-------|
|-2~-----------1~-------------2~-----------1~----------2~----------1~-------|

GTR
|------------------------------------------------------|
|------------------------------------------------------|
|------------------------------------------------------|
|-2~-----------1~-------------2~-----------1~----------|
|-2~-----------1~-------------2~-----------1~----------|
|-2~-----------1~-------------2~-----------1~----------|

Next riff is same chords with different strumming pattern, and the riff after that is 
strumming pattern except played with the top 3 strings open.
Tap to rate this tab
 
# A B C D E F G H I J K L M N O P Q R S T U V W X Y Z