Song name
# A B C D E F G H I J K L M N O P Q R S T U V W X Y Z

Misc Unsigned Bands - Mich Man- Zombie Boys tab

Intro/Verse: (strum slowly)

e--3-3-3-3-3-3-3--5--3-3-3-3-3-3-3--5~----|
B--3-3-3-3-3-3-3--5--3-3-3-3-3-3-3--5~----|
G--0-0-0-0-0-0-0--0--0-0-0-0-0-0-0--0~----|
D-----------------------------------------|  repeat as needed; let ring last
A-----------------------------------------|  time...
E-----------------------------------------|

Chorus:

e--11-1111-1111-1111-1111-1111-1111-1111-11---|
B--11-1111-1111-1111-1111-1111-1111-1111-11---|
G---0--0-0--0-0--0-0--0-0--0-0--0-0--0-0--0---|  continued...
D---------------------------------------------|
A---------------------------------------------|
E---------------------------------------------|

e-4-44-44-44-44-44-44-44-4--12~--13~-------|
B-4-44-44-44-44-44-44-44-4--12~--13~-------|
G-0-00-00-00-00-00-00-00-0---0~---0~-------|
D------------------------------------------|
A------------------------------------------|
E------------------------------------------|

So there she be... Mich Man is an amazin' band and you'll be hearing a lot more about 
HOORAH! ....|Chumkio|...
Tap to rate this tab
# A B C D E F G H I J K L M N O P Q R S T U V W X Y Z