Guitaretab - guitar tabs
Song name
# A B C D E F G H I J K L M N O P Q R S T U V W X Y Z

Misc Unsigned Bands - High Profile - Shan tab

GIRL FRIEND

tuning: standard:(e B G D A E)

Intro: 
I prefer this intro...
e|-------------------|
B|---9---------------|
G|-9---9-7-6-7/9-----|
D|---------------7/--|
A|-------------------|
E|-------------------|

-But I tab this also so better pick one of them
And listen to the music	
e|-----4------------------|
B|---4----4--2-1-2/4------|
G|--------------------1/--|
D|------------------------|
A|------------------------|
E|------------------------|
 
Stanza:
e|-------------------------------------------------|
B|-------------------------------------------------|
G|---------------------------------222...------- --|
D|--9999.../--4444...-/-666...-----222...----------|
A|--7777.../--2222...-/-444...-----000...----------|
E|-------------------------------------------------|
    ****      ****      ***        ***
[ Tab from: http://www.guitaretab.com/m/misc-unsigned-bands/66197.html ]
Chorus:
e|-------------------------------------------------|
B|-------------------------------------------------|
G|---------------------------------222...----------|
D|--9999.../--4444...-/-666...-----222...----------|
A|--7777.../--2222...-/-444...-----000...----------|
E|-------------------------------------------------|

Adlib part:
e|------------|------------|----------|--------------|
B|------------|------------|----------|--------------|
G|------------|------------|----------|--------------|
D|---9---9--9-|----9--9---9|---9--9--9|---9----9---9-|
A|-77--77--7--|------------|----------|-00--00----0--|
E|------------|-77--77--7--|-99-99-9--|--------------|
          (2x)         (2x)        (2x)          (2x)

Guitar2
e|-------------------------------------------------|
B|-------------------------------------------------|
G|----9-9-9-9-9-9-9-9-9-9-9-9-9-9-9-9...-----------|
D|-------------------------------------------------|
A|--- ---------------------------------------------|
E|-------------------------------------------------|

Guitar1
e|-------------------------------------------------|
B|-------------------------------------------------|
G|-------------------------------------------------|
D|----9-9-9-9-9-9-9-9------------------------------|
A|--- 7-7-7-7-7-7-7-7...---------------------------|
E|-------------------------------------------------|
              * * * * * * * * * * * * 

Related for High Profile - Shan tab
×
High Profile - Shan