Song name
# A B C D E F G H I J K L M N O P Q R S T U V W X Y Z

Misc Unsigned Bands - Virisidle - Bullet Proof tab

This is michael starns from the band Virisidle. I thought i would post this tab so no
other nut head out there would try to tab it differently. This is the way you play it.
I am 100% sure, i ought to know because i wrote the song. thanx and have fun. this is
one of our eaiser songs.    -Virisidle
Tunning:(standard)
intro:
e|--------------------|
b|--------------------|
g|--------------------|
d|-4-x-44-x-44-x-2222-|
a|-4-x-44-x-44-x-2222-|
e|-2-x-22-x-22-x-0000-|

verse:
e|--------------------|
b|--------------------|
g|--------------------|
d|-4-x-44-x-44-x-2222-|
a|-4-x-44-x-44-x-2222-|
e|-2-x-22-x-22-x-0000-|

chorus:
e|---------------------------------------|
b|---------------------------------------|
g|-6-6-6-6-6-----------4-4-4-4-----------|
d|-6-6-6-6-6-6-6-6-6-6-4-4-4-4-4-4-4-4-4-|
a|-4-4-4-4-4-6-6-6-6-6-2-2-2-2-4-4-4-4-4-|
e|-----------4-4-4-4-4---------2-2-2-2-2-|
Tap to rate this tab
# A B C D E F G H I J K L M N O P Q R S T U V W X Y Z