Song name
# A B C D E F G H I J K L M N O P Q R S T U V W X Y Z

Misc Unsigned Bands - Xs Freax - Life tab

Help us improve GuitareTab! Take a short survey!
guitar intro x2
E----------------------------------------------------------------------------|
A----------------------------------------------------------------------------|
D----------------------------------------------------------------------------|
G----------------------------------------------------------------------------|
B-55-33-11-33----------------------------------------------------------------|
E-55-33-11-33----------------------------------------------------------------|
then the bass, drums and vocals come in
verse x8
E----------------------------------------------------------------------------|
A----------------------------------------------------------------------------|
D----------------------------------------------------------------------------|
G----------------------------------------------------------------------------|
B-55-33-11-33----------------------------------------------------------------|
E-55-33-11-33----------------------------------------------------------------|
vocals and drums
chorus intro x1
  ....................................
E-555555555555555555555555555555555555---------------------------------------|
A-777777777777777777777777777777777777---------------------------------------|
D-777777777777777777777777777777777777---------------------------------------|
G----------------------------------------------------------------------------|
B----------------------------------------------------------------------------|
E----------------------------------------------------------------------------|
chorus x2
E-5555-33-11-5555-77-55-55555555-11111---------------------------------------|
A-7777-55-33-7777-99-77-77777777-33333---------------------------------------|
D-7777-55-33-7777-99-77-77777777-33333---------------------------------------|
G----------------------------------------------------------------------------|
B----------------------------------------------------------------------------|
E----------------------------------------------------------------------------|
verse x8
vocals and drums
chorus intro x1
chorus x2
solo x2
E----------------------------------------------------------------------------|
A----------------------------------------------------------------------------|
D----------------------------------------------------------------------------|
G----------------9----------------------------------------9------------------|
B-12121212-10--9---12121212-14--12--1212------12--10--9----------------------|
E----------------------------------------------------------------------------|
vocals and drums
chorus intro x1
chorus x2
vocals and drums till end
Related for Xs Freax - Life tab