Song name
# A B C D E F G H I J K L M N O P Q R S T U V W X Y Z

Misc Unsigned Bands - Virisidle - Punk Rules tab

genere:punk rock
members:adam sandlin,adam hall,michael starns and colin webster
tunning:eadgbe(standard)

Intro:
e|-----------------------------|
b|-----------------------------|
g|-5-5-5-----xxx-------5-5-5-5-|
d|-5-5-5-5-5-xxx-7-7-7-5-5-5-5-|
a|-3-3-3-5-5-xxx-7-7-7-3-3-3-3-|
e|-------3-3-xxx-5-5-5---------|

Chorus:
e|------------------------------------------------|
b|-----------------------------------------/e/----|
g|----------------11-11-10-10--------------/d/----|
d|-12-12-12-12-12-11-11-10-10-7-7-7-7-7-4-4/i/-12-|
a|-12-12-12-12-12--9--9--8--8-7-7-7-7-7-4-4/l/-12-|
e|-10-10-10-10-10-------------5-5-5-5-5-2-2/s/-10-|
Tap to rate this tab
# A B C D E F G H I J K L M N O P Q R S T U V W X Y Z