Song name
# A B C D E F G H I J K L M N O P Q R S T U V W X Y Z

Misc Unsigned Bands - Xs Freax - Dumb America tab

intro x1
E-55--------55--------55--------55-------------------------------------------|
A-77--------77--------77--------77-------------------------------------------|
D-77--------77--------77--------77-------------------------------------------|
G----------------------------------------------------------------------------|
B----------------------------------------------------------------------------|
E----------------------------------------------------------------------------|
verse x10
E-5555-7777-10101010--12/7---------------------------------------------------|
A-7777-9999-12121212---------------------------------------------------------|
D-7777-9999-12121212---------------------------------------------------------|
G----------------------------------------------------------------------------|
B----------------------------------------------------------------------------|
E----------------------------------------------------------------------------|
chorus intro x1
E-10101010101010101010101010-------------------------------------------------|
A-12121212121212121212121212-------------------------------------------------|
D-12121212121212121212121212-------------------------------------------------|
G----------------------------------------------------------------------------|
B----------------------------------------------------------------------------|
E----------------------------------------------------------------------------|
chorus x4
E-10101010----------------7777-----------------------------------------------|
A-12121212-10101010--7777-9999-----------------------------------------------|
D-12121212-12121212--9999-9999-----------------------------------------------|
G----------12121212--9999----------------------------------------------------|
B----------------------------------------------------------------------------|
E----------------------------------------------------------------------------|
intro x1
verse x10
chorus intro x1
chorus x4
intro x1
verse x2
chorus x8
Tap to rate this tab
# A B C D E F G H I J K L M N O P Q R S T U V W X Y Z