Song name
# A B C D E F G H I J K L M N O P Q R S T U V W X Y Z

Misc Unsigned Bands - More Than Normal - Anything tab

Help us improve GuitareTab! Take a short survey!
Tuning:  Eadgbe


intro/verse
|-----------------------------------------------------|
|-----------------------------------------------------|
|-2-2-2-2-2-2--2-2-2-2-2-2----------------------------| X8
|-2-2-2-2-2-2--2-2-2-2-2-2--3-3-2-3-3-3--3-3-2-3-3-3--|
|-0-0-3-0-0-0--0-0-3-0-0-0--3-3-3-3-3-3--3-3-3-3-3-3--|
|---------------------------1-1-0-1-1-1--1-1-0-1-1-1--|


chorus
|------------------------------------------|
|------------------------------------------|
|------------------------------------------| X5
|-7-7-7-7-7-3-3-3-3-10-10-10-10-10-5-5-5-5-|
|-7-7-7-7-7-3-3-3-3-10-10-10-10-10-5-5-5-5-|
|-5-5-5-5-5-1-1-1-1-8--8--8--8--8--3-3-3-3-|

intro/verse X2

break bass playes for a few bars

chorus X5

bridge part 1
|---------------------------------------------------------------|
|---------------------------------------------------------------|
|---------------------------------------------------------------| X1
|-7-7-7-7-7-3-3-3-3-10-10-10-12--12--12--14--14--14--12--12-----|
|-7-7-7-7-7-3-3-3-3---------------------------------------------|
|-5-5-5-5-5-1-1-1-1-8--8--8--10--10--10--12--12--12--10--10-----|

chorus X1

bridge part 2
|---------------------------------------------------------------|
|---------------------------------------------------------------|
|---------------------------------------------------------------| X2
|-7-7-7-7-7-3-3-3-3-10-10-10-9--9--9--10-10-10-12--12-----------|
|-7-7-7-7-7-3-3-3-3---------------------------------------------|
|-5-5-5-5-5-1-1-1-1-8--8--8--7--7--7--8--8--8--10--10-----------|


bridge part 3

|---------------------------------------------------------------|
|---------------------------------------------------------------|
|---------------------------------------------------------------| X1
|-7-7-7-7-7-3-3-3-3-10-10-10-9-9-9-7-7-7-7----------------------|
|-7-7-7-7-7-3-3-3-3---------------------------------------------|
|-5-5-5-5-5-1-1-1-1-8--8--8--7-7-7-5-5-5-5----------------------|


chorus X8
let last chord ring out
Related for More Than Normal - Anything tab