Song name
# A B C D E F G H I J K L M N O P Q R S T U V W X Y Z

Misc Unsigned Bands - Enough Already - The Unamed Song tab

-------------------------------------------------------------------------------
			     A Unamed Song-Enough Already
-------------------------------------------------------------------------------
Tabbed by: Joey, the guitarist of the band.
Email: You dont need to know.

Tuning: Standard

Intro
e|------------------------------------------------------------------------------|
B|------------------------------------------------------------------------------|
G|------------------------------------------------------------------------------|
D|-------------------------------------------------------------x5---------------|
A|-222-/-555--6\5---------------------------------------------------------------|
E|-222-/-555--4\3---------------------------------------------------------------|

Verse 1
e|--------------------------------------------------------------------------------|
B|--------------------------------------------------------------------------------|
G|--------------------------------------------------------------------------------|
D|-4--7--6--5--------------------------------x7----------------9-9-9--------------|
A|-x--x--x--x--------------------------------------------------x-x-x--------------|
E|-2--5--4--3--------------------------------------------------7-7-7--------------|

Chorus 1
e|-------------------------------------------------------------------------------|
B|-------------------------------------------------------------------------------|
G|-------------------------------------------------------------------------------|
D|----6-----5----------------------------------x5--------------------------------|
A|-6--4--5--3--------------------------------------------------------------------|
E|-4-----3-----------------------------------------------------------------------|

Verse 2
e|------------------------------------------------------------------------------|
B|------------------------------------------------------------------------------|
G|------------------------------------------------------------------------------|
D|--4-7-6-5-------------------------------------x7------------------------------|
A|--x-x-x-x---------------------------------------------------------------------|
E|--2-5-4-3---------------------------------------------------------------------|

Chorus 2
e|-------------------------------------------------------------------------------|
B|-------------------------------------------------------------------------------|
G|-------------------------------------------------------------------------------|
D|----6----- 5------------------------------------x5-----------------------------|
A|-6--4--5--3--------------------------------------------------------------------|
E|-4-----3-----------------------------------------------------------------------|

Bridge
e|-----------------------------------------------------------------------------|
B|-----------------------------------------------------------------------------|
G|-----------------------------------------------------------------------------|
D|--88888888--------------------------------------------------x4---------------|
A|--66666666-88888888-55555555-11111111----------------------------------------|
E|------------66666666-55555555-11111111---------------------------------------|

Final Chorus
e|---------------------------------------------------------------------------|
B|---------------------------------------------------------------------------|
G|---------------------------------------------------------------------------|
D|-----6------5------------------------------x5------------------------------|
A|--6--4--5--3---------------------------------------------------------------|
E|--4-----3------------------------------------------------------------------|

Outro
e|------------------------------------------------------------------------------|
B|------------------------------------------------------------------------------|
G|------------------------------------------------------------------------------|
D|--6--5------------------------------------------------------------------------|
A|--4--3---6--5-----------------------------------------------------------------|
E|---------4--3-----------------------------------------------------------------|


| /  slide up
| \  slide down
| x  Mute note

www.myspace.com/destructedtheband
Tap to rate this tab
 
# A B C D E F G H I J K L M N O P Q R S T U V W X Y Z