Song name
# A B C D E F G H I J K L M N O P Q R S T U V W X Y Z

Misc Unsigned Bands - On Hiatus - Six Strings Of Sadness tab

Help us improve GuitareTab! Take a short survey!
#1

Guitar One
E|-----5-------5-------5-------5----||
B|---6---6---6---6---6---6---6---6--||
G|-7-------7-------7-------7--------||
D|----------------------------------||
A|----------------------------------||
E|----------------------------------||


Guitar Two
E|-----5-------5-------5-------8-5--||
B|---6---6---6---6---6---6---6------||
G|-7-------7-------7-------7--------||
D|----------------------------------||
A|----------------------------------||
E|----------------------------------||


Guitar Three
E|-5~-------------------------------||
B|-6~-------------------------------||
G|-7~-------------------------------||
D|----------------------------------||
A|----------------------------------||
E|----------------------------------||


Guitar Four
E|----------------------------------||
B|----------------------------------||
G|-7---7-7-7-7-7---7-7-7-7-7---7-7--||
D|-7---7-7-7-7-7---7-7-7-7-7---7-7--||
A|-5---5-5-5-5-5---5-5-5-5-5---5-5--||
E|-6---6-6-6-6-6---6-6-6-6-6---6-6--||



#2

Guitar One
E|-----3-------3-------3-------3----||
B|---4---4---4---4---4---4---4---4--||
G|-5-------5-------5-------5--------||
D|----------------------------------||
A|----------------------------------||
E|----------------------------------||


Guitar Two
E|-----3-------3-------3-------6-3--||
B|---4---4---4---4---4---4---4------||
G|-5-------5-------5-------5--------||
D|----------------------------------||
A|----------------------------------||
E|----------------------------------||


Guitar Three
E|-3~-------------------------------||
B|-4~-------------------------------||
G|-5~-------------------------------||
D|----------------------------------||
A|----------------------------------||
E|----------------------------------||


Guitar Four
E|----------------------------------||
B|----------------------------------||
G|-7---7-7-7-7-7---7-7-7-7-7---7-7--||
D|-7---7-7-7-7-7---7-7-7-7-7---7-7--||
A|-5---5-5-5-5-5---5-5-5-5-5---5-5--||
E|-3---3-3-3-3-3---3-3-3-3-3---3-3--||



#3

Guitar One
E|-----1-------1-------1-------1----||
B|---2---2---2---2---2---2---2---2--||
G|-3-------3-------3-------3--------||
D|----------------------------------||
A|----------------------------------||
E|----------------------------------||


Guitar Two
E|-----1-------1-------1-------4-1--||
B|---2---2---2---2---2---2---2------||
G|-3-------3-------3-------3--------||
D|----------------------------------||
A|----------------------------------||
E|----------------------------------||


Guitar Three
E|-1~-------------------------------||
B|-2~-------------------------------||
G|-3~-------------------------------||
D|----------------------------------||
A|----------------------------------||
E|----------------------------------||


Guitar Four
E|----------------------------------||
B|----------------------------------||
G|-4---4-4-4-4-4---4-4-4-4-4---4-4--||
D|-4---4-4-4-4-4---4-4-4-4-4---4-4--||
A|-2---2-2-2-2-2---2-2-2-2-2---2-2--||
E|-0---0-0-0-0-0---0-0-0-0-0---0-0--||



#4

Guitar One
E|-----2-------2-------2-------2----||
B|---3---3---3---3---3---3---3---3--||
G|-4-------4-------4-------4--------||
D|----------------------------------||
A|----------------------------------||
E|----------------------------------||


Guitar Two
E|-----2-------2-------2-------5-2--||
B|---3---3---3---3---3---3---3------||
G|-4-------4-------4-------4--------||
D|----------------------------------||
A|----------------------------------||
E|----------------------------------||


Guitar Three
E|-2~-------------------------------||
B|-3~-------------------------------||
G|-4~-------------------------------||
D|----------------------------------||
A|----------------------------------||
E|----------------------------------||


Guitar Four
E|----------------------------------||
B|----------------------------------||
G|-4---4-4-4-4-4---4-4-4-4-4---4-4--||
D|-4---4-4-4-4-4---4-4-4-4-4---4-4--||
A|-2---2-2-2-2-2---2-2-2-2-2---2-2--||
E|-3---3-3-3-3-3---3-3-3-3-3---3-3--||


alright, its not that hard to play, but its still my own work.
its like this, when you play this song, do everything (as shown,
in order) 4 times. thats everything.
Related for On Hiatus - Six Strings Of Sadness tab