Song name
# A B C D E F G H I J K L M N O P Q R S T U V W X Y Z

Misc Unsigned Bands - Pray For Fire - De Menezez Screams tab

Song - De Menezez Screams
Artist - Pray For Fire
Year 2005

Guitar Tuned down a whole tone (2 frets and E tuned to C)

Intro Riff (Clean with Chorus and Delay)

d|----------------------------------------|
A|----------------------------------------|
F|----------------------------------------|
C|-----7-------7-------7--------7-7h8p7---|
G|---5---5---5---5---5---5----5-----------|
C|-0-------0-------0-------0--------------|


Verse Riff

d|---------------------------------------|
A|---------------------------------------|
F|------------------------------2h3p2----|
C|-----7-------7-------7---7-------------|
G|---5---5---5---5---5---5-3-------------|
C|-0-------6-------5-------3--3----------|

Verse Variation (Acending harmony)

d|---------------------------------------|
A|---------------------------------------|
F|-----2-------4-------5-----------------|
C|---0---0---0---0---0---0---------------|
G|--------------------------3------------|
C|-0-------6-------5--------3------------|

Chorus (Heavy)

d|---------------------------------------|
A|-----xx-x----xx-x----xx-x--------------|
F|-----xx-x----xx-x----xx-x--------------|
C|-7-7-xx-x7-7-xx-x7-7-xx-x-3-let---3----|
G|-5-5-xx-x5-5-xx-x5-5-xx-x-3-ring--3----|
C|-0-0-----6-6-----5-5------3-------3----|

Chorus Variation

d|---------------------------------------|
A|-----xx-x----xx-x----xx-x--------------|
F|-----xx-x----xx-x----xx-x--------------|
C|-0-0-xx-x6-6-xx-x5-5-xx-x-3-let---12\--|
G|-0-0-xx-x6-6-xx-x5-5-xx-x-3-ring--12\--|
C|-0-0-----6-6-----5-5------3-------12\--|


Post second and third chorus(Plenty of delay and distortion)

d|--------------------------------|--------------------------------|
A|--------------------------------|--------------------------------|
F|--------------------------------|--------------------------------|
C|--------------------------------|-0-0-0-0-6-6-6-6-5-5-5-5-3-3-3-3|
G|--------------------------------|--------------------------------|
C|-0-0-0-0-6-6-6-6-5-5-5-5-3-3-3-3|-0-0-0-0-6-6-6-6-5-5-5-5-3-3-3-3|

continued

d|------------------------------------------------|-----------------|
A|------------------------------------------------|-----------------|
F|------------------------------------------------|-----------------|
C|-12-12-12-12-18-18-18-18-17-17-17-17-15-15-15-15|-0-0-0-0-6-6-6-6-|
G|------------------------------------------------|-----------------|
C|-12-12-12-12-18-18-18-18-17-17-17-17-15-15-15-15|-0-0-0-0-6-6-6-6-|

contiued

d|------------------|
A|------------------|
F|------------------|
C|-5-5-5-5-0-0-0-0--|
G|------------------|
C|-5-5-5-5-0-0-0-0--|

Mid Section (Play loose with clean and with Pm when heavy)

d|---xx---------xx-------xx-------x------------|
A|---------------------------------------------|
F|---------------------------------------------|
C|-0----------0--------0--------0--------------|
G|-0---10h12--0---7h8--0---3h5--0--3p0-3h5-----|
C|-0-00-------0-00-----0-00-----0-0------------|


Mid Section Harmony

d|---xx--------xx-------xx-------x-------------|
A|---------------------------------------------|
F|---------------------------------------------|
C|-0---9h10--0---5h7--0---2h3--0--2p0-2h3------|
A|-0---------0--------0--------0---------------|
C|-0-00------0-00-----0-00-----0-0-------------|

Legend

H = Hammer on
P = Pull Off
\ = Slide down
x = Denotes Palm muted note

Visit www.prayforfire.co.uk
Tap to rate this tab
# A B C D E F G H I J K L M N O P Q R S T U V W X Y Z