Song name
# A B C D E F G H I J K L M N O P Q R S T U V W X Y Z

Misc Unsigned Bands - The Anteaters - Cardinal Directions tab

e-----------------------------------------------------------------------------|
b-----------------------------------------------------------------------------|
g-----------------------------------------------------------------------------|
d-----------------------------------------------------------------0-0-0-0-0-0-|
a---------------------------------0-0-0-0-0-0-0-0-3-3-3-3-3-3-3-3-------------|
E-0-0-0-0-0-0-0-0-3-3-3-3-3-3-3-3---------------------------------------------|

e-----------------------------------------------------------------------------|
b-----------------------------------------------------0-0-0-0-0-0-0-0-3-3-3-3-|
g---------------------0-0-0-0-0-0-0-0-3-3-3-3-3-3-3-3-------------------------|
d-0-0-3-3-3-3-3-3-3-3---------------------------------------------------------|
a-----------------------------------------------------------------------------|
E-----------------------------------------------------------------------------|

e---------0-0-0-0-0-0-0-0-3-3-3-3-3-3-3-3---0-----3-----0--------------------|
b-3-3-3-3-----------------------------------3-----0-----0--------------------|
g-------------------------------------------0-----0-----0--let ring----------|
d-------------------------------------------0-----0-----2--------------------|
a-------------------------------------------0-----2-----2--------------------|
E-------------------------------------------0-----3-----0--------------------|
Tap to rate this tab
# A B C D E F G H I J K L M N O P Q R S T U V W X Y Z