Song name
# A B C D E F G H I J K L M N O P Q R S T U V W X Y Z

Misc Unsigned Bands - Dt Explosion - The Man tab

Intro riff 1
|-------------------------------------------------------------------------|
|-------------------------------------------------------------------------|
|-------------------------------------------------------------------------|
|-------------------------------------------------------------------------|
|-2-2---2-2---2-2-3-3-2-2--2-2--2-2--2-2-3-3-5-5-3-3-2-2------------------|
|-2-2---2-2---2-2-3-3-2-2--2-2--2-2--2-2-3-3-5-5-3-3-2-2----x2------------|
|-0-0---0-0---0-0-1-1-0-0--0-0--0-0--0-0-1-1-3-3-1-1-0-0------------------|

 This part is played twice, except on the second playing of it let the last chord ring!

Guitar Solo
|--------------------------------------------------------------------------|
|----------------------------------------------543-------------------------|
|----------------------------------3-5-3-5vvv-0---543----------------------|
|------------------------5vvvvvv-0-------------------543-------------------|
|-------------------5435--------------------------------543----------------|
|---3-5-3-5-------3-----------------------------------------3\\\\----------|
|--3---------3vv-----------------------------------------------------------|

    The next part is a flute solo. Here is the guitar part.
rhythm riff
|--------------------------------------------------------------------------|
|--------------------------------------------------------------------------|
|--------------------------------------------------------------------------|
|--2-2-2-2-2-2-2-2-3-3-3-3-3-3-3-3-5-5-5-5-5-5-5-5-3-3-3-3-3-3-3-3-2-2-2-2-|
|--2-2-2-2-2-2-2-2-3-3-3-3-3-3-3-3-5-5-5-5-5-5-5-5-3-3-3-3-3-3-3-3-2-2-2-2-|
|--0-0-0-0-0-0-0-0-1-1-1-1-1-1-1-1-3-3-3-3-3-3-3-3-1-1-1-1-1-1-1-1-0-0-0-0-|


    The next part is an interlude to the verse/chorus part.
riff 1
|--------------------------------------------------------------------------|
|--------------------------------------------------------------------------|
|--------------------------------------------------------------------------|
|----------------------------------------------------------x2--------------|
|--3-2-3-2-0>>>>-23-2-3-2------3-2-3-2--------------0-0--------------------|
|-------------------------3>>>---------0>>>>--0h3-3------------------------|


riff 2
|-------------------------------------------------------------------------|
|-------------------------------------------------------------------------|
|-5>>>-2>>>-5>>>------5>>>--------------2>>>------------------------------|
|-5>>>-2>>>-3>>>-5>>>-5>>>-2>>>-2-2-5-5-2>>>------------------------------|
|-3>>>-0>>>-3>>>-5>>>-3>>>-2>>>-2-2-5-5-0>>>------------------------------|
|----------------3>>>------0>>>-0-0-3-3-----------------------------------|

   The verse and chorus part is the same as the interlude except switched around.  it 
Riff 2 for the verses and Riff 1 for the chorus.  right After the 2nd chorus you go back 
the Intro riff 1 a couple of times

this is the little outro at the end of the song.
e|--0-3-5-3-5-3-0----------------------------------------------------------|
b|----------------3>>>-----------------------------------------------------|
g|------------------------9-9----------------------------------------------|
d|------------------------9-9----------------------------------------------|
a|------------------------7-7----------------------------------------------|
e|-------------------------------------------------------------------------|

 > - let ring
 / - slide up
 v - bend
Tap to rate this tab
 
# A B C D E F G H I J K L M N O P Q R S T U V W X Y Z