Song name
# A B C D E F G H I J K L M N O P Q R S T U V W X Y Z

Misc Unsigned Bands - Ever Since The Accident - Drown Cadence Drown tab

Intro.
[---------------------------------------------------------------]
[---------------------------------------------------------------]
[---------------------------------------------------------------]
[---------------------------------------------------------------]   x6    
[--------5-----8-----7---7h8-5-----------5-----8-----T---7---8h0]
[0-0-0-0---0-0---0-0---0---------0-0-0-0---0-0---0-0---0---0----]
 Low D Palm Muted

Intro Harmonies (come in after 4x of intro riff) 
[---------------------------------------------------------------]
[---------------------------------------------------------------]
[---------------------------------------------------------------]
[---------------------------------------------------------------]   x2
[--------3-----7-----5---5h7-3-----------3-----7-----8---5---7h0]
[0-0-0-0---0-0---0-0---0---------0-0-0-0---0-0---0-0---0---0----]
 Low D Palm Muted

[---------------------------------------------------------------]
[---------------------------------------------------------------]
[---------------------------------------------------------------]
[---------------------------------------------------------------]   x4    
[--------5-------8---7---7h8-5-----------5-------8---T---7h8-7h8]
[000-0-0---0-0-0---0---0---------000-0-0---0-0-0---0---0---0----]
 Low D Palm Muted

[----------------------------------------------------------------]
[----------------------------------------------------------------]
[----9-------9-------9-------9-------T-------T-------T-------T---]
[----7-------7-------7-------7-------7-------7-------7-------7---]   x4
[----------------------------------------------------------------]
[0-0-----0-0-----0-0-----0-0-----0-0-----0-0-----0-0-----0-0-----]
 Low D Palm Muted
 
 Breakdown
[---------------------------------------------------------------]
[---------------------------------------------------------------]
[---------------------------------------------------------------]
[0-0-0-------0-0-0-0-0---0-0-----0-0-0-------0-0-0-0-0----------]\
[0-0-0-------0-0-0-0-0---0-0-----0-0-0-------0-0-0-0-0---5------] \
[0-0-0-------0-0-0-0-0---0-0-----0-0-0-------0-0-0-0-0----------]  \
                                                         ^          \
                                                   Pinch Harmonic    \
                                                                     /  x2
[---------------------------------------------------------------]   /
[---------------------------------------------------------------]  /
[---------------------------------------------------------------] /
[0-0-0-------0-0-0-0-0---0-0-----0-0-0-------0-0-3p2------------]/
[0-0-0-------0-0-0-0-0---0-0-----0-0-0-------0-0-----3p0-3p0-3h5]
[0-0-0-------0-0-0-0-0---0-0-----0-0-0-------0-0----------------]
 Palm Muted

 2-step rhythm part 1
[---------------------------------------------------------------]   
[---------------------------------------------------------------]  
[---------------------------------------------------------------]
[8-8-8-8-8-8-8-8-8-8-8-8-8-8-8-8-8-5-5-5-5-5-5-5-5-5-5-5-5-5-5-5]\   
[8-8-8-8-8-8-8-8-8-8-8-8-8-8-8-8-8-5-5-5-5-5-5-5-5-5-5-5-5-5-5-5] \ 
[8-8-8-8-8-8-8-8-8-8-8-8-8-8-8-8-5-5-5-5-5-5-5-5-5-5-5-5-5-5-5-5]  \
                                                                    \ 
 2-step lead part 2 (same as breakdown)                              \
[---------------------------------------------------------------]    / x2
[---------------------------------------------------------------]   /
[---------------------------------------------------------------]  /
[0-0-0-------0-0-0-0-0---0-0-----0-0-0-------0-0-0-0-0----------] /
[0-0-0-------0-0-0-0-0---0-0-----0-0-0-------0-0-0-0-0---5------]/
[0-0-0-------0-0-0-0-0---0-0-----0-0-0-------0-0-0-0-0----------] 
                                                         ^
                                                        P.H.  
 2-step lead part 1
[-------------------------------------------------------------------------]
[-------------------------------------------------------------------------]
[12--12---12-12-12-12---12-12-----12-12-12-T-T-T-T-T-T-T-T-9-9-9-9-9-T-T-T]
[-------------------------------------------------------------------------]
[10--10---10-10-10-10---10-10-----10-10-10-8-8-8-8-8-8-8-8-7-7-7-7-7-8-8-8] 
[-------------------------------------------------------------------------]\
                                                                           /
 2-step lead part 2 (same as breakdown)                                   /
[---------------------------------------------------------------]        / 
[---------------------------------------------------------------]       / 
[---------------------------------------------------------------]      / 
[0-0-0-------0-0-0-0-0---0-0-----0-0-0-------0-0-0-0-0----------]-----/  x2
[0-0-0-------0-0-0-0-0---0-0-----0-0-0-------0-0-0-0-0---5------] 
[0-0-0-------0-0-0-0-0---0-0-----0-0-0-------0-0-0-0-0----------]

Repeat 2-step a third time, and play "-step part 2" twice and end.






 


Tap to rate this tab
# A B C D E F G H I J K L M N O P Q R S T U V W X Y Z