Song name
# A B C D E F G H I J K L M N O P Q R S T U V W X Y Z

Misc Unsigned Bands - Un Empezar Mas - Mi Unico Amor tab

http://www.interpunk.com/ heres were we got our lable
un empezar es mi grupo. provenimos de costa rica y tocamos punk,anarcopunk, skapunk,
y blackpunk.
"un empezar mas" is my band and we are from costa rica. we play the genres listed
upwards. in general we play simple punk.

"mi unico amor (el libro de 100cias)"

guitar 1 & 2 intro. x2 (guitar 3 plays it 2 times)
e||---------------------------|
b||---------------------------|
g||----------77------------55-|
d||5-5-xx-xx-77--5-5-xx-xx-55-|
a||5-5-xx-xx-55--5-5-xx-xx-33-|
E||3-3-xx-xx-----3-3-xx-xx----|

guitar 1 riff 1 (guitar 2 starts it later)
e||---------------------------------|
b||---------------------------------|
g||--------77777777--------55555555-|
d||55555555777777775555555555555555  x4
a||55555555555555555555555533333333
E||33333333--------33333333--------

chorus (guitar 2 continues riff 1)
e||---------------------------------|
b||---------------------------------|
g||----------------5555555577777777-|
d||55555555444444445555555577777777  x2
a||55555555444444443333333355555555
E||3333333322222222----------------

riff 1 again  x1

riff 2 (both guitars)
e||---------------------------------|
b||---------------------------------|
g||----------------55555555-7---5---|
d||555555554444444455555555-7-7-5-5-|
a||55555555444444443-3-3-3--5-7-3-5-|
E||3-3-3-3-2-2-2-2------------5---3-|

fill
e||-------------------------------------|
b||-------------------------------------|
g||-------------------------------------|
d||----------------------------77777777-|
a||5-555-555-555-557-777-777-7777777777-|
E||3-333-333-333-335-555-555-5555555555-|
pm . ... ... ... ... ... ... ..<<<<<<<<

chorus again x4

bridge x1
e||------------------------------------|
b||------------------------------------|
g||77777777/9999999x77777777/99999999x-
d||77777777/9999999x77777777/99999999x-
a||55555555/7777777x55555555/77777777x-
E||------------------------------------

solo (second guitar plays riff 1)
e||--------------------------------||------------------------------|
b||--------------------------------||------------------------------|
g||------------------12--14--12--14||14/15-15-14-12-14-12-10b11r10-|
d||--12--10--12--10----------------||------------------------------|
a||10--10--10--10--10--10--10--10--||------------------------------|
E||--------------------------------||------------------------------|

bridge x1

chorus x2

riff 1 x4
            **************************************************
END         *                                 _       |      *
e||-------||* /     \ |\  |   |--- |\    /|  | \      |      *
b||-------||* \     / | \ |   |--  | \  / |  |_/  ----|----  *
g||4~~~---||*  \___/  |  \|   |--- |  \/  |  |  o     |      *
d||5~~~-5*||* ________________________________________|      *
a||5~~~-5*||**************************************************
E||3~~~-3*||
Tap to rate this tab
# A B C D E F G H I J K L M N O P Q R S T U V W X Y Z