Song name
# A B C D E F G H I J K L M N O P Q R S T U V W X Y Z

Misc Unsigned Bands - Bananaband - Pwn Bucket tab

    pwn bucket                                    



                                                                    
E||--------------------------------|-------------------------------|
B||--------------------------------|-------------------------------|
G||--------------------------------|-------------------------------|
D||--9--9-9-x-x-x-9-7-5--5-5-x-x-x-|--5-6-7--7-7-x-x-x-7-5-3-0-0---|
A||--9--9-9-x-x-x-9-7-5--5-5-x-x-x-|--5-6-7--7-7-x-x-x-7-5-3-0-0---|
D||--9--9-9-x-x-x-9-7-5--5-5-x-x-x-|--5-6-7--7-7-x-x-x-7-5-3-0-0---|


                                                                 
--------------------------------|-------------------------------|
--------------------------------|-------------------------------|
--------------------------------|-------------------------------|
--9--9-9-x-x-x-9-7-5--5-5-x-x-x-|--5-6-7--7-7-x-x-x-7-5-3-0-0---|
--9--9-9-x-x-x-9-7-5--5-5-x-x-x-|--5-6-7--7-7-x-x-x-7-5-3-0-0---|
--9--9-9-x-x-x-9-7-5--5-5-x-x-x-|--5-6-7--7-7-x-x-x-7-5-3-0-0---|


                                                                 
--------------------------------|-------------------------------|
--------------------------------|-------------------------------|
--------------------------------|-------------------------------|
--9--9-9-x-x-x-9-7-5--5-5-x-x-x-|--5-6-7--7-7-x-x-x-7-5-3-0-0---|
--9--9-9-x-x-x-9-7-5--5-5-x-x-x-|--5-6-7--7-7-x-x-x-7-5-3-0-0---|
--9--9-9-x-x-x-9-7-5--5-5-x-x-x-|--5-6-7--7-7-x-x-x-7-5-3-0-0---|


                                                                 
--------------------------------|-------------------------------|
--------------------------------|-------------------------------|
--------------------------------|-------------------------------|
--9--9-9-x-x-x-9-7-5--5-5-x-x-x-|--5-6-7--7-7-x-x-x-7-5-3-0-0---|
--9--9-9-x-x-x-9-7-5--5-5-x-x-x-|--5-6-7--7-7-x-x-x-7-5-3-0-0---|
--9--9-9-x-x-x-9-7-5--5-5-x-x-x-|--5-6-7--7-7-x-x-x-7-5-3-0-0---|


                                                                              
----------------------------------|----------------------------------|---|---|
----------------------------------|----------------------------------|---|---|
----------------------------------|----------------------------------|---|---|
--9-9-9-9-5-5-5-5-7-7-7-7-0-0-0-0-|--9-x-x-x-5-x-x-x-7-x-x-x-0-x-x-x-|---|---|
--9-9-9-9-5-5-5-5-7-7-7-7-0-0-0-0-|--9-x-x-x-5-x-x-x-7-x-x-x-0-x-x-x-|---|---|
--9-9-9-9-5-5-5-5-7-7-7-7-0-0-0-0-|--9-x-x-x-5-x-x-x-7-x-x-x-0-x-x-x-|---|---|


     
---||
---||
---||
---||
---||
---||


Tap to rate this tab
# A B C D E F G H I J K L M N O P Q R S T U V W X Y Z