Song name
# A B C D E F G H I J K L M N O P Q R S T U V W X Y Z

Misc Unsigned Bands - Gang Bang Brothers - Sunnies Sunshine tab

Tabbed by:  timothy frasca
questions, comments, or advice?  Please e-mail me at tf577681@wcupa.edu


                               
                             Sunnie's Sunshine
                            by Gang Bang Brothers

Tunning: standard  EADGBe
Tempo: as fast as you can



 intro/ verse X4
    G
e|----3-3------3-3------3-3------3-3------3-3------3-3------3-3-----3-3----|
B|----3-3------3-3------3-3------3-3------3-3------3-3------3-3-----3-3----|
G|----0-0------0-0------0-0------0-0------0-0------0-0------0-0-----0-0----|
D|----0-0------0-0---0--0-0------0-0------0-0------0-0---0--0-0-----0-0----|
A|----2-2---2--2-2------------2--2-2------2-2---2--2-2-----------2--2-2----|
E|-3--3-3------------------------------3--3-3------------------------------|


    C
e|----0-0------0-0------0-0------0-0------0-0------0-0------0-0------0-0---|
B|----1-1------1-1------1-1------1-1------1-1------1-1------1-1------1-1---|
G|----0-0------0-0---0--0-0------0-0------0-0------0-0---0--0-0------0-0---|
D|----2-2---2--2-2------2-2---2--2-2------2-2---2--2-2------2-2---2--2-2---|
A|-3--3-3------------------------------3--3-3------------------------------|
E|-------------------------------------------------------------------------|

    D
e|----2-2------2-2------2-2------2-2------2-2------2-2------2-2------2-2---|
B|----3-3------3-3---3--3-3------3-3------3-3------3-3---3--3-3------3-3---|
G|----2-2---2--2-2------2-2---2--2-2------2-2---2--2-2------2-2---2--2-2---|
D|-0--0-0------0-0------0-0------0-0---0--0-0------0-0------0-0------0-0---|
A|-------------------------------------------------------------------------|
E|-------------------------------------------------------------------------|

 intro/ verse X4


 chorus
   G        C        D
e|----3-3------0-0------2-2-----2-2--|
B|----3-3------1-1------3-3-----3-3--|
G|----0-0------0-0------2-2-----2-2--|
D|----0-0------2-2---0--0-0--0--0-0--|   X3
A|----2-2---3--3-3-------------------|
E|-3--3-3----------------------------|


   C        C/B      Am 
e|----0-0------0-0------0-0-----0-0----|
B|----1-1------1-1------1-1-----1-1----|
G|----0-0------0-0------2-2-----2-2----|
D|----2-2----- 0-0------2-2-----2-2----|   X2
A|-3--3-3---2--2-2---0--0-0--0--0-0----|
E|-------------------------------------|


   G        C        D
e|----3-3------0-0------2-2-----2-2--|
B|----3-3------1-1------3-3-----3-3--|
G|----0-0------0-0------2-2-----2-2--|
D|----0-0------2-2---0--0-0--0--0-0--|   X3
A|----2-2---3--3-3-------------------|
E|-3--3-3----------------------------|



   C        C/B      Am 
e|----0-0------0-0------0-0-----0-0----|
B|----1-1------1-1------1-1-----1-1----|
G|----0-0------0-0------2-2-----2-2----|
D|----2-2----- 0-0------2-2-----2-2----|   X2
A|-3--3-3---2--2-2---0--0-0--0--0-0----|
E|-------------------------------------|

 
  bridge
e|----3-3------2-2---|
B|----3-3------3-3---|
G|----0-0------2-2---|
D|----0-0---0--0-0---|  X4
A|----2-2------------|
E|-3--3-3------------|



 verse X4
    G
e|----3-3------3-3------3-3------3-3------3-3------3-3------3-3-----3-3----|
B|----3-3------3-3------3-3------3-3------3-3------3-3------3-3-----3-3----|
G|----0-0------0-0------0-0------0-0------0-0------0-0------0-0-----0-0----|
D|----0-0------0-0---0--0-0------0-0------0-0------0-0---0--0-0-----0-0----|
A|----2-2---2--2-2------------2--2-2------2-2---2--2-2-----------2--2-2----|
E|-3--3-3------------------------------3--3-3------------------------------|


    C
e|----0-0------0-0------0-0------0-0------0-0------0-0------0-0------0-0---|
B|----1-1------1-1------1-1------1-1------1-1------1-1------1-1------1-1---|
G|----0-0------0-0---0--0-0------0-0------0-0------0-0---0--0-0------0-0---|
D|----2-2---2--2-2------2-2---2--2-2------2-2---2--2-2------2-2---2--2-2---|
A|-3--3-3------------------------------3--3-3------------------------------|
E|-------------------------------------------------------------------------|

    D
e|----2-2------2-2------2-2------2-2------2-2------2-2------2-2------2-2---|
B|----3-3------3-3---3--3-3------3-3------3-3------3-3---3--3-3------3-3---|
G|----2-2---2--2-2------2-2---2--2-2------2-2---2--2-2------2-2---2--2-2---|
D|-0--0-0------0-0------0-0------0-0---0--0-0------0-0------0-0------0-0---|
A|-------------------------------------------------------------------------|
E|-------------------------------------------------------------------------|

 verse X4


 chorus
   G        C        D
e|----3-3------0-0------2-2-----2-2--|
B|----3-3------1-1------3-3-----3-3--|
G|----0-0------0-0------2-2-----2-2--|
D|----0-0------2-2---0--0-0--0--0-0--|   X3
A|----2-2---3--3-3-------------------|
E|-3--3-3----------------------------|


   C        C/B      Am 
e|----0-0------0-0------0-0-----0-0----|
B|----1-1------1-1------1-1-----1-1----|
G|----0-0------0-0------2-2-----2-2----|
D|----2-2----- 0-0------2-2-----2-2----|   X2
A|-3--3-3---2--2-2---0--0-0--0--0-0----|
E|-------------------------------------|


   G        C        D
e|----3-3------0-0------2-2-----2-2--|
B|----3-3------1-1------3-3-----3-3--|
G|----0-0------0-0------2-2-----2-2--|
D|----0-0------2-2---0--0-0--0--0-0--|   X3
A|----2-2---3--3-3-------------------|
E|-3--3-3----------------------------|



   C        C/B      Am 
e|----0-0------0-0------0-0-----0-0----|
B|----1-1------1-1------1-1-----1-1----|
G|----0-0------0-0------2-2-----2-2----|
D|----2-2----- 0-0------2-2-----2-2----|   X2
A|-3--3-3---2--2-2---0--0-0--0--0-0----|
E|-------------------------------------|


e|----0-0------0-0------|
B|----1-1------1-1------|
G|----0-0------0-0------|
D|----2-2------0-0------|  X3 then finish song with....
A|-3--3-3---2--2-2------|
E|----------------------|


e|-----|
B|-----|
G|--0--|
D|--0--|
A|--2--|
E|--3--|
Tap to rate this tab
# A B C D E F G H I J K L M N O P Q R S T U V W X Y Z