Song name
# A B C D E F G H I J K L M N O P Q R S T U V W X Y Z

Misc Unsigned Bands - Bananaband - Rock Off Like Its 2006 tab

Rythym in Bananaband's  ROCK OFF LIKE ITS 2006

                                                             
E||--------------------------------|------------------------|
B||--------------------------------|------------------------|
G||--------------------------------|------------------------|
D||--3-3-1--x-x-x-x-1----2----3----|--3----0----2----0-1-2--|
A||--3-3-1--x-x-x-x-1----2----3----|--3----0----2----0-1-2--|
D||--3-3-1--x-x-x-x-1----2----3----|--3----0----2----0-1-2--|


                                                          
--------------------------------|------------------------|
--------------------------------|------------------------|
--------------------------------|------------------------|
--3-3-1--x-x-x-x-1----2----3----|--3----0----2----0-1-2--|
--3-3-1--x-x-x-x-1----2----3----|--3----0----2----0-1-2--|
--3-3-1--x-x-x-x-1----2----3----|--3----0----2----0-1-2--|


                                                          
--------------------------------|------------------------|
--------------------------------|------------------------|
--------------------------------|------------------------|
--3-3-1--x-x-x-x-1----2----3----|--3----0----2----0-1-2--|
--3-3-1--x-x-x-x-1----2----3----|--3----0----2----0-1-2--|
--3-3-1--x-x-x-x-1----2----3----|--3----0----2----0-1-2--|


                                                          
--------------------------------|------------------------|
--------------------------------|------------------------|
--------------------------------|------------------------|
--3-3-1--x-x-x-x-1----2----3----|--3----0----2----0-1-2--|
--3-3-1--x-x-x-x-1----2----3----|--3----0----2----0-1-2--|
--3-3-1--x-x-x-x-1----2----3----|--3----0----2----0-1-2--|


                                                                             
-----------------------|----------------------|-----------------------------|
-----------------------|----------------------|-----------------------------|
-----------------------|----------------------|-----------------------------|
--3/---10/---9/---8/---|--7/---6/---5/---4----|--3----3b---3----3--3--3--3--|
--3/---10/---9/---8/---|--7/---6/---5/---4----|--3----3b---3----3--3--3--3--|
--3/---10/---9/---8/---|--7/---6/---5/---4----|--3----3b---3----3--3--3--3--|


                                                                            
---------------|----------------|---------------|--------------------------|
--6~-----------|--13~-----------|--x------------|--x----x----0~------------|
--5~-----------|--12~-----------|--x------------|--x----x----2~------------|
--3~-----------|--10~-----------|--7~-----------|--3~---2~---2~---1--2--3--|
--3~-----------|--10~-----------|--7~-----------|--3~---2~---0~---1--2--3--|
--3~-----------|--10~-----------|--7~-----------|--3~---2~--------1--2--3--|


                                                          
--------------------------------|------------------------|
--------------------------------|------------------------|
--------------------------------|------------------------|
--3-3-1--x-x-x-x-1----2----3----|--3----0----2----0-1-2--|
--3-3-1--x-x-x-x-1----2----3----|--3----0----2----0-1-2--|
--3-3-1--x-x-x-x-1----2----3----|--3----0----2----0-1-2--|


                                                          
--------------------------------|------------------------|
--------------------------------|------------------------|
--------------------------------|------------------------|
--3-3-1--x-x-x-x-1----2----3----|--3----0----2----0-1-2--|
--3-3-1--x-x-x-x-1----2----3----|--3----0----2----0-1-2--|
--3-3-1--x-x-x-x-1----2----3----|--3----0----2----0-1-2--|


                                                                   
--------------------------|-------------------|------------------||
--------------------------|--6~---------------|------------------||
--------------------------|--5~---------------|------------------||
--3--x--3--x--3--x--3--x--|--3~---------------|------------------||
--3--x--3--x--3--x--3--x--|--3~---------------|------------------||
--3--x--3--x--3--x--3--x--|--3~---------------|------------------||


Tap to rate this tab
 
# A B C D E F G H I J K L M N O P Q R S T U V W X Y Z