Song name
# A B C D E F G H I J K L M N O P Q R S T U V W X Y Z

Misc Unsigned Bands - Bananaband - Baby I Just Wanna Let You Know tab

This is Bananaband's "Baby, I just wanna let you know

Intro goes:

Dm Am Dm Am C-Am

in this fashion


   Dm                                                                     
E||--1--------------1----|------------1---------|-------1--------------|
B||-------3--------------|--3--------------3----|------------3---------|
G||------------2---------|-------2--------------|--2--------------2----|
D||--0-------------------|----------------------|-------0---------0----|
A||----------------------|----------------------|----------------------|
E||----------------------|----------------------|----------------------|


Am                                                                     
--0--------------0----|------------0---------|-------0--------------|
-------1--------------|--1--------------1----|------------1---------|
------------2---------|-------2--------------|--2--------------2----|
--2-------------------|----------------------|-------2---------2----|
----------------------|----------------------|----------------------|
----------------------|----------------------|----------------------|


 C                                               C-A                    
----------------------|----------------------|----------------------|
--1--------------1----|------------1---------|-------1--------------|
-------0--------------|--0--------------0----|------------0---------|
------------2---------|-------2--------------|--2--------------2----|
--3--------------3----|------------3---------|-------2--------------|
----------------------|----------------------|----------------------|


 Am                                                                     
--0--------------0----|------------0---------|-------0--------------||
-------1--------------|--1--------------1----|------------1---------||
------------2---------|-------2--------------|--2--------------2----||
--2-------------------|----------------------|----------------------||
----------------------|----------------------|----------------------||
----------------------|----------------------|----------------------||



Dm                 Am
Baby, sooner or later
Dm                 Am
Darling, we'll be separated
Dm                   Am
But til, that day has come
Dm
I just, wannna let you 

(begin strumming hard, like a rocker!)

Am
KNOW THAT
DM
BABY, I'LL
C
NEVER
C
LET
C-Am
YOU 
Am
GO!!!!!

Then comes the guitar solo, its just random notes in the A pentonic scale on the 5th
frets and goes as high as the next possition pentonic on the 10th, then does a rundown
to an open A string


ENJOY BANANAGINS!
Tap to rate this tab
# A B C D E F G H I J K L M N O P Q R S T U V W X Y Z