Song name
# A B C D E F G H I J K L M N O P Q R S T U V W X Y Z

Misc Unsigned Bands - High Profile - Friendly Ghost tab

INTRO
e|-----------------------------------------------------------------------------|
B|-----------------------------------------------------------------------------|
G|-----------------------------------------------------------------------------|
D|--10-10-10-10-10-10-10-10-10-10-10-10-10-10-10-10----------------------------|
A|--8--8--8--8--8--8--8--8--7--7--7--7--7--7--7--7--7-7-7-7-7-7-7-7-7-7-7-7-7--|
E|--------------------------------------------------5-5-5-5-5-5-5-5-5-5-5-5-5--|
    8x                      8x                      16x
e|-----------------------------------------------------------------------------|
B|-----------------------------------------------------------------------------|
G|--10-10-10-10-10-10-10-10-------------------------------------------9-9-7-7--|
D|--------------------------10-10-10-10-10-10-10-10--7-7-7-7-7-7-7-7-----------|
A|--8--8--8--8--8--8--8--8---------------------------7-7-7-7-7-7-7-7-----------|
E|--------------------------8--8--8--8--8--8--8--8-----------------------------|
    8x                      8x                       16x
e|-----------------------------------------------------------------------------|
B|-----------------------------------------------------------------------------|
G|-----------------------------------------------------------------------------|
D|--10-10-10-10-10-10-10-10-10-10-10-10-10-10-10-10----------------------------|
A|--8--8--8--8--8--8--8--8--7--7--7--7--7--7--7--7--7-7-7-7-7-7-7-7-7-7-7-7-7--|
E|--------------------------------------------------5-5-5-5-5-5-5-5-5-5-5-5-5--|
    8x                      8x                      16x
e|-----------------------------------------------------------------------------|
B|-----------------------------------------------------------------------------|
G|--10-10-10-10-10-10-10-10--------------------------14-14-14-14-14-14-14-14---|
D|--------------------------10-10-10-10-10-10-10-10--14-14-14-14-14-14-14-14---|
A|--8--8--8--8--8--8--8--8---------------------------12-12-12-12-12-12-12-12---|
E|--------------------------8--8--8--8--8--8--8--8-----------------------------|
    8x                      8x                       16x


VERSE-1
e|---X-X-X-X-X-X-X-X-X-X-X-X-X-X-X-X-X-X-X-X-X-X-X-X-X-X-X---------------------|
B|---X-X-X-X-X-X-X-X-X-X-X-X-X-X-X-X-X-X-X-X-X-X-X-X-X-X-X---------------------|
G|---X-X-X-X-X-X-X-X-X-X-X-X-X-X-X-X-X-X-X-X-X-X-X-X-X-X-X---------------------|
D|---X-X-X-X-X-X-X-X-X-X-X-X-X-X-X-X-X-X-X-X-X-X-X-X-X-X-X---------------------|
A|---X-X-X-X-X-X-X-X-X-X-X-X-X-X-X-X-X-X-X-X-X-X-X-X-X-X-X---------------------|
E|---X-X-X-X-X-X-X-X-X-X-X-X-X-X-X-X-X-X-X-X-X-X-X-X-X-X-X---------------------|


e|------X-X-X-X-X----X-X-X-X-X----X-X-X-X-X------------------------------------|
B|---10-X-X-X-X-X-10-X-X-X-X-X-10-X-X-X-X-X-13-13-13-13-13---------------------|
G|---10-X-X-X-X-X-10-X-X-X-X-X-10-X-X-X-X-X------------------------------------|
D|---12-X-X-X-X-X-12-X-X-X-X-X-12-X-X-X-X-X------------------------------------|
A|------X-X-X-X-X----X-X-X-X-X----X-X-X-X-X------------------------------------|
E|------X-X-X-X-X----X-X-X-X-X----X-X-X-X-X------------------------------------|


CHOURS
e|---1-1-1-1--0-0-0-0--2-2-2-2-2-2-2-2--1-1-1-1--0-0-0-0--5-5-5-5-5-5--6-6-----|
B|---1-1-1-1--1-1-1-1--3-3-3-3-3-3-3-3--1-1-1-1--1-1-1-1--5-5-5-5-5-5--6-6-----|
G|---2-2-2-2--x-x-x-x--2-2-2-2-2-2-2-2--2-2-2-2--x-x-x-x--5-5-5-5-5-5--7-7-----|
D|---3-3-3-3--2-2-2-2--0-0-0-0-0-0-0-0--3-3-3-3--2-2-2-2--7-7-7-7-7-7--8-8-----|
A|---3-3-3-3--3-3-3-3-------------------3-3-3-3--3-3-3-3--7-7-7-7-7-7--8-8-----|
E|---1-1-1-1----------------------------1-1-1-1-----------5-5-5-5-5-5--6-6-----|

FILL
e|-----------------------------------------------------------------------------|
B|-----------------------------------------------------------------------------|
G|-----------------------------------------------------------------------------|
D|-----------------------------------------------------------------------------|
A|---12----(12)--(12)--(12)--(12)--(12)--(12)----------------------------------|
E|-----------------------------------------------------------------------------|


INTERLUDE
e|-----------------------------------------------------------------------------|
B|-----------------------------------------------------------------------------|
G|-----------------------------------------------------------------------------|
D|--10-10-10-10-10-10-10-10-10-10-10-10-10-10-10-10----------------------------|
A|--8--8--8--8--8--8--8--8--7--7--7--7--7--7--7--7--7-7-7-7-7-7-7-7-7-7-7-7-7--|
E|--------------------------------------------------5-5-5-5-5-5-5-5-5-5-5-5-7--|
    8x                      8x                      16x
e|-----------------------------------------------------------------------------|
B|-----------------------------------------------------------------------------|
G|--10-10-10-10-10-10-10-10--------------------------14-14-14-14-14-14-14-14---|
D|--------------------------10-10-10-10-10-10-10-10--14-14-14-14-14-14-14-14---|
A|--8--8--8--8--8--8--8--8---------------------------12-12-12-12-12-12-12-12---|
E|--------------------------8--8--8--8--8--8--8--8-----------------------------|
    8x                      8x                       16x

VERSE-2
Just like Verse 1,you will figure it out


OUTRO
e|---1-1-1-1--0-0-0-0--2-2-2-2-2-2-2-2--1-1-1-1--0-0-0-0--5-5-5-5-5-5--6-6----|
B|---1-1-1-1--1-1-1-1--3-3-3-3-3-3-3-3--1-1-1-1--1-1-1-1--5-5-5-5-5-5--6-6----|
G|---2-2-2-2--x-x-x-x--2-2-2-2-2-2-2-2--2-2-2-2--x-x-x-x--5-5-5-5-5-5--7-7----|
D|---3-3-3-3--2-2-2-2--0-0-0-0-0-0-0-0--3-3-3-3--2-2-2-2--7-7-7-7-7-7--8-8----|
A|---3-3-3-3--3-3-3-3-------------------3-3-3-3--3-3-3-3--7-7-7-7-7-7--8-8----|
E|---1-1-1-1----------------------------1-1-1-1-----------5-5-5-5-5-5--6-6----|

END WITH THIS
e|---5------------------------------------------------------------------------|
B|---6------------------------------------------------------------------------|
G|---7------------------------------------------------------------------------|
D|---7------------------------------------------------------------------------|
A|---5------------------------------------------------------------------------|
E|----------------------------------------------------------------------------|

http://groups.yahoo.com/group/high_profile05
Tap to rate this tab
# A B C D E F G H I J K L M N O P Q R S T U V W X Y Z