Song name
# A B C D E F G H I J K L M N O P Q R S T U V W X Y Z

Misc Unsigned Bands - Imru - Suffocate Me tab

symbols
Tuning:Eadgbe
 /: slide
 *: cut off
 ~: let ring
 x: hit string w/o note
 ^: rest

Intro- guitar 1
 e--------------------------------------------------------------------------|
 b-------------------(Play twice)- then use the same chords in a fast strum-|
 g-------(x-2)------(x-2)---------(x-2)---------------(2-x)---------pattern-|
 d--(4*-4~-xxxx)(7*-7~-xxxx)(2*-2~-xxxx)-(2~-2222222)-----------------------|
 a--(4*-4~-xxxx)(7*-7~-xxxx)(2*-2~-xxxx)-(2~-2222222)-----------------------|
 E--(2*-2~-xxxx)(5*-5~-xxxx)(0*-0~-xxxx)-(0~-0000000)- ---------------------|


intro-guitar 2
 e--------------------------------------------------------------------------|
 b----(x 2)---------(x 2)---------------------------------------------------|
 g--(8*-8~-xxxx)(11*11~-xxxx)-8~8*x6~6*x4~4x6~6*x8~8*x6~6*x4~4*x6~66*-------|
 d--(x--x--xxxx)-(x—x~-xxxx)--x-x-xx-x-xx~xxx-x-xx-x-xx-x-xx-x-xx xx--------|
 a--(6*-6~-xxxx)(9*-9~--xxxx)-6~6*x4~4*x2~2x4~4*x6~6*x4~4*x2~2*x4~44*-------|
 E--------------------------------------------------------------------------|
                                                                                         
                      "just let it out-

Verse- guitar 1
 e----------------------------------------------------------------------|
 b----------------------------------------------------------------------|
 g----------------------------------------------------------------------|
 d--6~--9~--2~2*xxx-2~2*xxx-2222222222--666-xxx--666xxx-xxx-6666--------|
 a--6~--9~--2~2*xxx-2~2*xxx-2222222222--666-xxx--666xxx-xxx-6666--------|
 E--4~--7~--0~0*xxx-0~0*xxx-0000000000--444-xxx--444xxx-xxx-4444--------|
   "Slowly..."                      " i'm falling apart, falling apart..."

 verse- guitar 2
 e--------------------------------------------------------------------------|
 b--------------------------------------------------------------------------|
 g-8~-11~--8~8*x-6~6*x-4~4-x-6~6*x8~8*x6~6*x4~4*x6~66*-xxxx-6666-xxxx-6666--|
 d-x---x---x~x-x-x~x-x-x~x-x-x~x-xx~x-xx~x-xx~x-xx~xx--xxxx-xxxx-xxxx-xxxx--|
 a-6~--9~--6~6*x-4~4*x-2~2-x-4~4*x6~6*x4~4*x2~2*x4~44*-xxxx-4444-xxxx-4444--|
 E--------------------------------------------------------------------------|


 pre-chorus guitar 1
 e------------------------------------------------------------------------|
 b------------------------------------------------------------------------|
 g------------------------------------------------------------------------|
 d--6~6*-x-9*9*9*9*9/11/9-4~6*6*6*4~--6~6*-x-9*9*9*9*9/11/9-2~-4*4*4*-2~--|
 a--6~6*-x-9*9*9*9*9/11/9-4~6*6*6*4~--6~6*-x-9*9*9*9*9/11/9-2~-4*4*4*-2~--|
 E--4~4*-x-7*7*7*7*7/-9/7-2~4*4*4*2~--4~4*-x-7*7*7*7*7/-9/7-0~-2*2*2*-0~--|


 e--------------------------------------------------------------------------|
 b--------------------------------------------------------------------------|
 g--------------------------------------------------------------------------|
 d--6~666666666666----9~999999999999///-------------------------------------|
 a--6~666666666666----9~999999999999///-------------------------------------|
 E--4~444444444444----7~777777777777///-------------------------------------|
  " i thought i'd never leave your side..."


 e--------------------------------------------------------------------------|
 b--------------------------------------------------------------------------|
 g--------------------------------------------------------------------------|
 d--6~6*-x-9*9*9*9*9/11/9-4~6*6*6*4~--6~6*-x-9*9*9*9*9/11/9-2~-4*4*4*-2~----|
 a--6~6*-x-9*9*9*9*9/11/9-4~6*6*6*4~--6~6*-x-9*9*9*9*9/11/9-2~-4*4*4*-2~----|
 E--4~4*-x-7*7*7*7*7/-9/7-2~4*4*4*2~--4~4*-x-7*7*7*7*7/-9/7-0~-2*2*2*-0~----|


 chorus-guitar 1
 e--------------------------------------------------------------------------|
 b--------------------------------------------------------------------------|
 g------888-----888----11111----11111---------------------------------------|
 d--6~6-xxx-6~6-xxx-9~9-xxx--9~9-xxx--2~-22222222222222222------------------|
 a--6~6-666-6~6-666-9~9-999--9~9-999--2~-22222222222222222------------------|
 E--4~4-----4~4----7~7----7~7---------0~-00000000000000000------------------|
" i laugh, i cry, i live, i die... but the truth remains the same..."


 chorus- guitar 2
 e--------------------------------------------------------------------------|
 b--------------------------------------------------------------------------|
 g-13~13-xxx-13~13-xxx-9~9-xxx-9~9-xxx--------------------------------------|
 d-xx~xx-xxx-xx~xx-xxx-x~x-xxx-x~x-xxx--------------------------------------|
 a-11~11-xxx-11~11-xxx-7~7-xxx-7~7-xxx--------------------------------------|
 E--------------------------------------------------------------------------|

 e--------------------------------------------------------------------------|
 b--------------------------------------------------------------------------|
 g----8~8*x6~6*x4~4x6~6*x8~8*x6~6*x4~4*x6~66*-----(play---------------------|
 d----x-x-xx-x-xx~xxx-x-xx-x-xx-x-xx-x-xx xx---------twice)-----------------|
 a----6~6*x4~4*x2~2x4~4*x6~6*x4~4*x2~2*x4~44*-------------------------------|
 E--------------------------------------------------------------------------|

Bridge- guitar 1
e---------------------------------------------------------------------------|
b---------------------------------------------------------------------------|
g------------(x-2)--------------------\\8~-------------------Play twice-----|
d----(6~--4~--2~--4~--6~--4~--2~)-----\\x~----------------------------------|
a----(6~--4~--2~--4~--6~--4~--2~)-----\\6~----------------------------------|
E----(4~--2~--0~--2~--4~--2~--0~)-------------------------------------------|
      “you_don’t_want_me-to-be…”


Bridge- guitar 2
e----------------------------------------------------------------------------|
b---------(x-3)--------------------------------------------------------------|
g------------8~--6~--4~)-----------------------------------------------------|
d—(^~-^~-^~--x~--x~--x~)------Play twice-------------------------------------|
a—(^~-^~-^~--6~--4~--2~)-----------------------------------------------------|
E—(^~-^~-^~------------------------------------------------------------------|


-Order-
Intro
Pre-chorus
Chorus
Verse
Chorus
Bridge
Pre-chorus
Chorus

That’s all she wrote! It’s hard to understand how it goes w/o knowing the song but well 
a band site up soon & u can listen 2 it on there! If u’ve got any comments or 
u can put ‘em on my myspace blog (“suffocate me”)…
Tap to rate this tab
# A B C D E F G H I J K L M N O P Q R S T U V W X Y Z