Song name
# A B C D E F G H I J K L M N O P Q R S T U V W X Y Z

Misc Unsigned Bands - Warped Perspective - Taken For A Ride tab

Hey This Is my band. And our song Taken For A Ride.
To listen to any of out songs, please go to www.myspace.com/acousticel

Tuning: e B G D A E

Intro

e--x--x--x--x--x----x--x--x--x--x--|
B--x--x--x--x--x----x--x--x--x--x--|
G--2--x--x--5--4----2--x--x--5--7--| [x2]
D--2--3--5--5--4----2--3--5--5--7--|
A--0--3--5--3--2----0--3--5--3--5--|
E--x--1--3--x--x----x--1--3--x--x--|

Verse

e--x--x--x--x--x----x--x--x--x--x--|
B--x--x--x--x--x----x--x--x--x--x--|
G--2--x--x--5--4----2--x--x--5--7--| [x2]
D--2--3--5--5--4----2--3--5--5--7--|
A--0--3--5--3--2----0--3--5--3--5--|
E--x--1--3--x--x----x--1--3--x--x--|
pm..................................

Chorus

e--x--x--x--x--x--|
B--x--x--x--x--x--|
G--2--7--x--5--4--| [x4]
D--2--7--5--5--4--|
A--0--5--5--3--2--|
E--x--x--3--x--x--|

Repeat Intro

Repeat Verse

Repeat Chorus [x2]

Interlude
   
e--x--------------|
B--x--------------|
G--2--------------| 
D--2--------------|
A--0--------------|
E--x--------------|
   ^let ring

then

e--x--x--x--x--x----x--x--x--x--|
B--x--x--x--x--x----x--x--x--x--|
G--2--x--x--5--4----2--x--x--5--| 
D--2--3--5--5--4----2--3--5--5--|
A--0--3--5--3--2----0--3--5--3--|
E--x--1--3--x--x----x--1--3--x--|
pm..............................

Repeat Chorus [x2]

Repeat Intro

**for more information about Warped-Perspective please go to te follwing:
www.maxpages.com/wperspective

Thank-You

<3<3<3
<3El<3
<3<3<3
Tap to rate this tab
# A B C D E F G H I J K L M N O P Q R S T U V W X Y Z