Song name
# A B C D E F G H I J K L M N O P Q R S T U V W X Y Z

Misc Unsigned Bands - The Hot Panty Boys - Indentation tab

-------------------------------------------------------------------------------
			     Indentation - The hot panty boys
-------------------------------------------------------------------------------
Tabbed by: Stino
Email: vivalaons@scarlet.be
Site: www.brouwerij-balder.be
Comment: Hoe goe zen THPB wel ni. En zoekt het ritme mo zelf. En het klopt ok ni volledeg mo swat.

Tuning: eBGDAE


Verse: (Clean)
e|----------------------------------------------------------------------------|
B|----------------------------------------------------------------------------|
G|---0---0---0---0---0---0---0---0---0---0---0---0---0---0---0---0---0---2-2-2|
D|----------------------------------------------------------------------------|X2
A|-7---7---7---7---7---5---5---5---5---5---3---3---3---3---3---2---2---2------|
E|----------------------------------------------------------------------------|


e|---------------------------------------------------------------------------|
B|-----------0-0-0-----------0-0-0-----------0-0-0---------------------------|
G|---0---0-----------0---0-----------0---0-----------0---0---2-2-2-----------|
D|---------------------------------------------------------------------------|
A|-7---7---7-------5---5---5-------3---3---3-------2---2---2-----------------|
E|---------------------------------------------------------------------------|

e|---------------------------------------------------------------------------|
B|---------------------------------------------------------------------------|
G|---0---0---7--------0---0---7--------0---0---5-4-4----0---0---2-4-4--------|
D|-------------9-9--------------9-9------------------------------------------|
A|-7---7---7--------5---5---5--------3---3---3--------2---2---2--------------|
E|---------------------------------------------------------------------------|

e|---------------------------------------------------------------------------|
B|---------------------------------------------------------------------------|
G|---0---0---7--------0---0---7--------0---0---5-4-4----0---0---2------------|
D|-------------9-9--------------9-9-------------------------------4-4-2~-----|
A|-7---7---7--------5---5---5--------3---3---3--------2---2---2--------------|
E|---------------------------------------------------------------------------|


Chorus: (Distortion)
e|---------------------------------------------------------------------------|
B|---------------------------------------------------------------------------|
G|-9-//-12-11-7 //-5-//-2-//-7-----------------------------------------------|
D|-9-//-12-11-7-//-5-//-2-//-7-----------------------------------------------|X4
A|-7-//-10-9--5-//-3-//-0-//-5-----------------------------------------------|
E|---------------------------------------------------------------------------|


Back to verse.

Bridge X6 (Distortion)  Last time
e|-------------------| |--------------------------------------------------------|
B|-------------------| |--------------------------------------------------------|
G|-9-x-9-7-5-4-x-----| |-9-//-12-//-11------------------------------------------|
D|-9-x-9-7-5-4-x-----| |-7-//-12-//-11------------------------------------------|
A|-7-x-7-5-3-2-x-----| |-7 //-10-//-9-------------------------------------------|
E|-------------------| |--------------------------------------------------------|

Back to chorus X4 and end on 

e|-----|
B|-----|
G|-9---|
D|-9---|
A|-7---|
E|-----|


| // keep on strumming
| /  slide up
| \  slide down
| h  hammer-on
| p  pull-off
| ~  vibrato
| +  harmonic
| x  Mute note
===============================================================================
Tap to rate this tab
# A B C D E F G H I J K L M N O P Q R S T U V W X Y Z