Song name
# A B C D E F G H I J K L M N O P Q R S T U V W X Y Z

Misc Unsigned Bands - The Anteaters - Saw tab

let ring
e----------------------------------------------------------------|
b----------------------------------------------------------------|
g----------------------------------------------------------------|
d---7---7-5---10---5---7-5---10---5---7-5--10---7---7-5---10---5-|repeat 4x
a-----0-----0----0---0-----0----0---0----0----0---0-----0----0---|
e----------------------------------------------------------------|


e----------------------------------------------------------------|
b----------------------------------------------------------------|
g--------2--------2---------2--------2--------7--------7--------7|
d-3-xx-3-2-3-xx-3-2--3-xx-3-2-3-xx-3-2-5-xx-5-7-5-xx-5-7-5-xx-5-7|
a-3-xx-3-0-3-xx-3-0--3-xx-3-0-3-xx-3-0-5-xx-5-5-5-xx-5-5-5-xx-5-5|
e-1-xx-1---1-xx-1----1-xx-1---1-xx-1---3-xx-3---3-xx-3---3-xx-3--|



e----------------------------------------------------------------|
b----------------------------------------------------------------|
g--------7-------------------------------------------------------|
d-5-xx-5-7-------------------------------------------------------|
a-5-xx-5-5-------------------------------------------------------|
e-3-xx-3---------------------------------------------------------|
let ring
e----------------------------------------------------------------|
b----------------------------------------------------------------|
g----------------------------------------------------------------|
d---7---7-5---10---5---7-5---10---5---7-5--10---7---7-5---10---5-|
a-----0-----0----0---0-----0----0---0----0----0---0-----0----0---|
e----------------------------------------------------------------|

e----------------------------------------------------------------|
b----------------------------------------------------------------|
g----------------------------------------------------------------|
d(5)~~~~~~~-hold for 4 whole notes-------------------------------|
a----------------------------------------------------------------|
e----------------------------------------------------------------|

Tap to rate this tab
# A B C D E F G H I J K L M N O P Q R S T U V W X Y Z