Song name
# A B C D E F G H I J K L M N O P Q R S T U V W X Y Z

Misc Unsigned Bands - Sixpounder - Sad Days Await You tab

this whole song even the solo are played twice.
gtr I-ebgdae-clean
or gtr I-eb,Bb,Gb,Db,Ab,Eb-clean


                             .
   H  Q E H  Q E H   S S S S E S
|--0--0-0-0--0-0-0~--0-0-0-0-0-0-|
|--0--0-0-0--0-0-0~--0-0-0-0-0-0-|
|--0--0-0-0--0-0-0~--0-0-0-0-0-0-|
|--0--0-0-0--0-0-0~--0-0-0-0-0-0-|
|--7--7-7-5--5-5-3~--3-3-3-3/5-3-|
|--5--5-5-3--3-3-1~--1-1-1-1/3-1-|(x4)



                             .
   H  Q E H  Q E H   S S S S E S
|--0--0-0-0--0-0-0~--0-0-0-0-0-0-|
|--0--0-0-0--0-0-0~--0-0-0-0-0-0-|
|--0--0-0-0--0-0-0~--0-0-0-0-0-0-|
|--0--0-0-0--0-0-0~--0-0-0-0-0-0-|
|--0--0-0-0--0-0-0~--0-0-0-0-0-0-|
|--5--5-5-3--3-3-1~--1-1-1-1/3-1-|(x4)




   H   S  S  S  Q  Q   S  S  S  E  H   S  S  S  E  H  S  S  S   Q    H  S
|--------------20-18b-17-18-17-----------------18-17----------17s13-13----|
|-18b-15-17-18-----------------18-20b-17-18-17-------17-18-20----------15-|
|-------------------------------------------------------------------------|
|-------------------------------------------------------------------------|
|-------------------------------------------------------------------------|
|-------------------------------------------------------------------------|




   S  S  Q  Q   S  S  S  E  H   S  S  S  E  H  S  S  S   Q    H   Q    H
|-------20-18b-17-18-17-----------------18-17----------17s13-13-18s15-15-|
|-17-18-----------------18-20b-17-18-17-------17-18-20-------------------|
|------------------------------------------------------------------------|
|------------------------------------------------------------------------|
|------------------------------------------------------------------------|
|------------------------------------------------------------------------|




   S  S  S  E  H
|----------18-17-|
|-17-18-17-------|
|----------------|
|----------------|
|----------------|
|----------------|





                             .
   H  Q E H  Q E H   S S S S E S
|--0--0-0-0--0-0-0~--0-0-0-0-0-0-|
|--0--0-0-0--0-0-0~--0-0-0-0-0-0-|
|--0--0-0-0--0-0-0~--0-0-0-0-0-0-|
|--0--0-0-0--0-0-0~--0-0-0-0-0-0-|
|--0--0-0-0--0-0-0~--0-0-0-0-0-0-|
|--5--5-5-3--3-3-1~--1-1-1-1/3-1-|(x4)


the . above the power chord and the 3 note means staccato.
Tap to rate this tab
# A B C D E F G H I J K L M N O P Q R S T U V W X Y Z