Song name
# A B C D E F G H I J K L M N O P Q R S T U V W X Y Z

Misc Unsigned Bands - Different Kind Of Assault - Truse tab

VERSE
e-------------------------------------------|
B-----2-2--------2-2--------2-2------2--2-2-|
G---0-----0----0-----0----0-----0---0--0----|
D----------------------------------2--2--2--|
A-3----------2----------0-------------------|
E-------------------------------------------| REPEAT TILL CHORUS( YOU WILL KNOW WHEN SINGER NODS TO YOU

CHORUS
e--------------------------------------------------|
B--------------------------------------------------|
G--------------------------------------------------|
D---7--777--5--55---9--99--9--99--777777--7-5-7-5--|
A---7--777--5--55---9--99--9--99--777777--7-5-7-5--|
E---5--555--3--33---7--77--7--77--555555--5-5-5-5--|

LEAD GUITAR SOLO
E-----5-6-8-6-5---5-------l-8-----5--8-----5-8-10--|l
B----6---------8-6--8-6-5-l--6---6----6---6--------|l
G---7---------------------l---5-7------5-7---------|l
D-------------------------l------------------------|l
A-------------------------l------------------------|l
E-------------------------l------------------------|l


E---------------------------5---5-6-5-6-8-6-8/10---|l
B----------5--5-6-5-6-8-6-8---8--------------------|l
G----7-5-7--7--------------------------------------|l
D--------------------------------------------------|l
A--------------------------------------------------|l
E--------------------------------------------------|l

SONG STRUCTURE...
VERSE
VERSE
CHORUS
RHYTHM GUITAR SOLO
VERSE
CHORUS
LEAD GUITAR SOLO
VERSE
OUTRO(I DONT KNOW IT COZ THE RHYTHM GUITARIST IN MY BAND PLAYS IT


Thanks, Steve, Lead guitarist-Different Kind of Assault
Tap to rate this tab
# A B C D E F G H I J K L M N O P Q R S T U V W X Y Z