Song name
# A B C D E F G H I J K L M N O P Q R S T U V W X Y Z

Misc Unsigned Bands - Confused - Untitled tab

This is a Velvet Revolver Style song I wrote when I was toying around with the tuning on 
Guitar...Enjoy

Tuning: (this is the only complicated bit)

Low E:--1 step Down(lower)    G:--standard
    A:--standard              B:--standard
    D:--standard          Top E:--1 step down(lower)

 Intro(clean):
E--------------------------------|
B--------------------------------|
G-------------------5------------|
D-0-3-4-4--0-6-7-7--5--6-7-6-4-3-|
A-0-3-4-4--0-6-7-7--3--6-7-6-4-3-|
E-0-3-4-4--0-6-7-7-----6-7-6-4-3-|

 Verse(Distortion):
E-------------------------------|
B-------------------------------|
G--------------3-3--------------|
D-0-3-4--0-6-7-3-3-6-7--0-5-0-3-|
A-0-3-4--0-6-7-3-3-6-7--0-5-0-3-|
E-0-3-4--0-6-7-----6-7--0-5-0-3-|

 Chorus(Even Heavier Distorion):
E----------------------|
B----------------------|
G----------------------|
D-0--0-3-4---------3-4-|
A-0--0-3-4---------3-4-|
E-0--0-3-4--6--7~--3-4-|

 Outro(Heavy Wah Wah/Tremblo)
E-7--5--3--2---0--|
B-----------------|
G-----------------|
D-----------------|
A-----------------|
E-7--5--3--2---0--|


SONG LAYOUT:
 INTRO (x4)
 VERSE (x16)
 CHORUS (x4)
 VERSE (x16)
 CHORUS (x8)
 OUTRO (x1)
Tap to rate this tab
# A B C D E F G H I J K L M N O P Q R S T U V W X Y Z