Song name
# A B C D E F G H I J K L M N O P Q R S T U V W X Y Z

Misc Unsigned Bands - Jdawg And Associates - Deacon Collects Offering tab

rhythm guitar strum: Am, G, Em, D

  Am     G    Em     D
e|-0-| |-3-| |-0-| |-2-|
B|-1-| |-0-| |-0-| |-3-|
G|-2-| |-0-| |-0-| |-2-|
D|-2-| |-0-| |-2-| |-0-|
A|-0-| |-2-| |-2-| |---|
E|---| |-3-| |-0-| |---|

Riff 1 (x2)
e|---------------------------|--------------------------------|
B|---------------------------|--------------------------------|
G|---------------------------|--------------------------------|
D|---------------------------|--------------------------------|
A|---------10-12-14-12-10----|--------10-12-14-12-10-12-14~---|
E|-8-10-12----------------12-|-8-10-12------------------------|

Riff 2
e|--------------------------------------------------------------------|
B|--------------------------------------------------------------------|
G|-------------------------------------------------12-14-16----14--12-|
D|-10-12-14-12-10-------12-10-12----------10-12-14----------14--------|
A|----------------12-10----------12-10-12-----------------------------|
E|--------------------------------------------------------------------|

it goes something like that, those are the 2 main riffs that it keeps 
coming back to. its like 4 and a half minutes long and you can pretty
much figure out the rest of it from those.
Tap to rate this tab
# A B C D E F G H I J K L M N O P Q R S T U V W X Y Z