Song name
# A B C D E F G H I J K L M N O P Q R S T U V W X Y Z

Misc Unsigned Bands - Running For Mayor - The Star Wars Trilogy tab

Running For Mayor
The Star Wars Trilogy


Intro

(both guitars)
e |---------------------          --------------------------|
B |---------------------          --------------------------|
G |------------0--------          --------------------------|
D |--2---------3-(6x)---          -----9----7---------------|
A |--2--(6x)---2--------slide into----10----9---------------|
E |--0------------------          --------------------------|


Verse

e --------------------------------|
B --------------------------------|
G --------5-----------------------|
D ---2----5---5---5---------------|
A ---2----3---5---5---------------|
E ---0--------3---2---------------| (4x)


Break

e --------------------------------|
B --------------------------------|
G --------------------------------|
D ---22--44--55-------5-----------|
A ---33--55--77-(2x)--5-----------|
E --------------------3-----------|


Chours

e --------------------------------|
B --------------------------------|
G ---55555--77777--9999-----------|
D ---55555--77777--9999-----------|
A ---33333--55555--7777-----------|
E -----------------0000-----------|

Outro


(both guitars)
e |---------------------          --------------------------|
B |---------------------          --------------------------|
G |------------0--------          --------------------------|
D |--2---------3-(6x)---          -----9----7----------2----|
A |--2--(6x)---2--------slide into----10----9----(end)-2----|
E |--0------------------          ---------------------0----|
Tap to rate this tab
# A B C D E F G H I J K L M N O P Q R S T U V W X Y Z