Song name
# A B C D E F G H I J K L M N O P Q R S T U V W X Y Z

Misc Unsigned Bands - Envoke - Ablaze In Your Eyes tab

Help us improve GuitareTab! Take a short survey!
A slow ballad, don't rush it, just strum gently.
Set your amp to clean or use acoustic.
Tune to :: D A D G B D

Intro & Verse
|---------------------|
|---------------------|
|---------------------|
|-12-12-12-12-7-7-7-7-|
|-9--9--9--9--5-5-5-5-|
|-9--9--9--9--5-5-5-5-|

Chorus
|-2-2-2-2-5-5-5-5-2-2-2-2-0-0-0-0-|
|-3-3-3-3-8-8-8-8-3-3-3-3-5-5-5-5-|
|-4-4-4-4-7-7-7-7-2-2-2-2-6-6-6-6-|
|-4-4-4-4-5-5-5-5-0-0-0-0-7-7-7-7-|
|-2-2-2-2-5-5-5-5-0-0-0-0-7-7-7-7-|
|-2-2-2-2-5-5-5-5-0-0-0-0-5-5-5-5-|

Interlude
|-----------------------------------------------------------------|
|---7---7---7---7---7---7---7---7---7---7---7---7---7---7---7---7-|
|---7---7---7---7---7---7---7---7---7---7---7---7---7---7---7---7-|
|-9---9---9---9---5---5---5---5---0---0---0---0---7---7---7---7---|
|-----------------------------------------------------------------|
|-----------------------------------------------------------------|
Related for Envoke - Ablaze In Your Eyes tab