Song name
# A B C D E F G H I J K L M N O P Q R S T U V W X Y Z

Misc Unsigned Bands - Hoist - Juice tab

Hoist - Juice

Hoist is a band from Winnipeg, Manitoba
Web Site - www.purevolume.com/hoist

                   Intro
[-5-5-x-5-5-x-5--5-5-x-5-5--------------------]
[-6-6-x-6-6-x-6--5-5-x-5-5--------------------]
[-7-7-x-7-7-x-7--6-6-x-6-6--------------------]
[-7-7-x-7-7-x-7--7-7-x-7-7--------------------]
[-5-5-x-5-5-x-5--7-7-x-7-7---------7^8-5-4^5--]
[----------------5-5-x-5-5---3/5-8------------]

            Lead Fill 1
[-5^6^5----------------------------]
[-------6^5-------------------5----]
[-----------7^6-----5^6---6-7---7--]
[---------------5^7----------------]
[----------------------------------]
[----------------------------------]

[-9-9-|-10-10-------x10-x10--9-9--9x9-x9--]
[-9-9-|-10-10-------x10-x10--9-9--9x9-x9--]
[-----|-----------------------------------]
[-----|-------11^12-----------------------]
[-----|-----------------------------------]
[-----|-----------------------------------]

        (With Wah)
[-10---------9-----------]
[-10---------9-----------]
[-10---------9-----------]
[-12---------11----------]
[------------------------]
[------------------------]

      Lead Fill 2
[-8---------------------------]
[----11-10-8------------------]
[------------10-9----6-7-9-7--]
[-----------------6-----------]
[-----------------------------]
[-----------------------------]

    Chorus
[-5-5-x-5-5-x-5--5-5-x-5-5--]
[-6-6-x-6-6-x-6--5-5-x-5-5--]
[-7-7-x-7-7-x-7--6-6-x-6-6--]
[-7-7-x-7-7-x-7--7-7-x-7-7--]
[-5-5-x-5-5-x-5--7-7-x-7-7--]
[----------------5-5-x-5-5--]


Solo W/ Effects    


     Bridge
[-5------------5------------]
[-6------------5------------]
[-7------------6------------]
[-7------------7------------]
[-5------------7------------]
[--------------5------------]

Solo W/ Dist
Tap to rate this tab
# A B C D E F G H I J K L M N O P Q R S T U V W X Y Z