Song name
# A B C D E F G H I J K L M N O P Q R S T U V W X Y Z

Misc Unsigned Bands - Lunaractive - Sho Down tab

Off of LunarActive's Debut album "Intergallactic Samurai"
www.lunaractive.com
www.myspace.com/lunaractive
Standard Tuning (eadgbe)

Intro:
|-------------------------------|     |-----7-------------|
|-8---7-------------------------|     |-8-7---------------|
|---9---7-9---7-----------9-7-9-|     |-----------7-9-7-9-|
|-----------9---7-9---7---9-7-9-|(x4) |-------9-9---9-7-9-|
|-------------------9--7--7-5-7-|     |-------------7-5-7-|
|-------------------------------|     |-------------------|

2nd guitar enters on          Both guitars:
the 3rd time:
|-------------------|         |---------------------|
|-------------------|         |---------------------|
|-----------7-9-7-9-|         |9-9-9-9--7-7-------7-|   Pick slide
|-2-4-5-7-9-7-9-7-9-|(x3)     |9-9-9-9--7-7--9-9--7-|
|-2-4-5-7-9-5-7-5-7-|         |7-7-7-7--5-5--9-9--5-|
|-0-2-3-5-7---------|         |--------------7-7----|


verse 1:
1st guitar
|------------------------------------------------------|
|------------------------------------------------------|
|9--9-9--9-9-9-9-9-9-9--7--5--5-5--5-5-5-5-5-5-5-5--4--|
|9--9-9--9-9-9-9-9-9-9--7--5--5-5--5-5-5-5-5-5-5-5--4--|
|7--7-7--7-7-7-7-7-7-7--5--3--3-3--3-3-3-3-3-3-3-3--2--|
|------------------------------------------------------|

                                 1st time      2nd time add
--------------------------|    |------------|  |----------|
--------------------------| <- |------------|  |----------|
--------------------------|    |------------|  |----------|
-7--7-7--7-7-7-7-7-7-7-7-5|(x2)|-2-2-5-2-2-5|  |2-2--5--2-|
-7--7-7--7-7-7-7-7-7-7-7-5|    |-0-0-5-0-0-5|  |2-2--5--2-|
-5--5-5--5-5-5-5-5-5-5-5-3| <- |-0-0-3-0-0-3|  |0-0--3--0-|

verse 1:
2nd guitar
|----------------------------------------------------------------------|
|----------------------------------------------------------------------|
|9--9-9--9-9-9-9-9-9-9--11--12--12-12--12-12-12-12-12-12-12-12--17--16-|
|9--9-9--9-9-9-9-9-9-9--11--12--12-12--12-12-12-12-12-12-12-12--17--16-|
|7--7-7--7-7-7-7-7-7-7---9--10--10-10--10-10-10-10-10-10-10-10--15--14-|
|----------------------------------------------------------------------|

                                               1st time      2nd time add
----------------------------------------|    |------------|  |----------|
----------------------------------------| <- |------------|  |----------|
-14--14-14--14-14-14-14-14-14-14-14--12-|    |------------|  |----------|
-14--14-14--14-14-14-14-14-14-14-14--12-|(x2)|-2-2-5-2-2-5|  |2-2--5--2-|
-12--12-12--12-12-12-12-12-12-12-12--10-|    |-0-0-5-0-0-5|  |2-2--5--2-|
----------------------------------------| <- |-0-0-3-0-0-3|  |0-0--3--0-|


verse 2:
"Ninja dagger hits the door.."
|-------------------------------|     |--------|
|-------------------------------|     |-----*5-|
|------55555--------------------|     |-4------| <-Add in 2nd time
|22222-55555-55555--2-2-5-2-2-5-|(x2) |---2----|
|22222-33333-55555--2-2-5-2-2-5-|     |--------|
|00000-------33333--0-0-3-0-0-3-|     |--------|


Verse 3:
|--------------------------------------------------------------------------|
|--------------------------------------------------------------------------|
|-----4-----4-----4-----4-----7-----7-----7-----7-----*9-----9-----9-----9-|
|-2-2---2-2---2-2---2-2---5-5---5-5---5-5---5-5---7-7----7-7---7-7---7-7---|
|--------------------------------------------------------------------------|
|--------------------------------------------------------------------------|

|----------------|   |-----------|
|----------------|   |-----------|
|----------------|   |-----------|
|-2-2--5--2-2--5-|   |-2-2--5--2-| <-2nd time
|-2-2--5--2-2--5-|   |-2-2--5--2-|
|-0-0--3--0-0--3-|   |-0-0--3--0-|


Chorus:
|-----------------------------------------------------------------|
|-----------------------------------------------------------------|
|-9-9-9-9-9-9-9-9-5-5-5-5-5-5-5-5---------------------------------|
|-9-9-9-9-9-9-9-9-5-5-5-5-5-5-5-5-7-7-7-7-7-7-7-7-9-9-9-9-9-9-9-9-| (x2)
|-7-7-7-7-7-7-7-7-3-3-3-3-3-3-3-3-7-7-7-7-7-7-7-7-9-9-9-9-9-9-9-9-|
|---------------------------------5-5-5-5-5-5-5-5-7-7-7-7-7-7-7-7-|


Bridge 1:
"Fight! mortal enemies.."
|---------------------------------------------|
|---------------------------------------------|
|-9--9--9--9--5--5--5--5----------------------|
|-9--9--9--9--5--5--5--5--7--7--7--7--9----9--| (x2)
|-7--7--7--7--3--3--3--3--7--7--7--7--9----9--|
|-------------------------5--5--5--5--7----7--|

|--------------------|
|--------------------|
|-9-9-9-9--7-7-----7-|
|-9-9-9-9--7-7-9-9-7-|
|-7-7-7-7--5-5-9-9-5-|
|--------------7-7---|


Solo: Guitar 1:
|-----------------------------------------------------------------------|
|-----------------------------------------------------------------------|
|--------------------------7--------------------------------------------|
|---10-9--------------7--7---7-10-999-7-7---------9-7----------7--------|
|-7------7--7-10-7-10---------------------10-9-10------10-9~~7---7-10---|
|-----------------------------------------------------------------------|

-------------------------------------------------------------|
-------------------------------------------------------------|
-------------------------------------------------------------|
--------------------10-999-7-9-10-9------------9-7-----------|(x2)
-999---8-7----10-10-----------------10-10-9-10-----10-9-77---|
-----8-----8-------------------------------------------------|

Guitar 2: (2nd time through solo)
|-----------------------------------------------------------------|
|-----------------------------------------------------------------|
|-----------------------------------------------------------------|
|-2-2--2-2-2-2--2-2-2-2--2-2-2-2--7-7--7-7-7-7--7-7-7-7--7-7-7-7--|
|-2-2--2-2-2-2--2-2-2-2--2-2-2-2--7-7--7-7-7-7--7-7-7-7--7-7-7-7--|
|-0-0--0-0-0-0--0-0-0-0--0-0-0-0--5-5--5-5-5-5--5-5-5-5--5-5-5-5--|

                                              p.m.----------------|
------------------------------------------------------------------|
------------------------------------------------------------------|
-5-5--5-5-5-5-----------------------------------------------------|
-5-5--5-5-5-5--9-9--9-9-9-9--9-9-9-9--9-9-9-9--2-2-2-2-2-2-2-2----|
-3-3--3-3-3-3--9-9--9-9-9-9--9-9-9-9--9-9-9-9--2-2-2-2-2-2-2-2----|
---------------7-7--7-7-7-7--7-7-7-7--7-7-7-7--0-0-0-0-0-0-0-0----|


Guitar 1:
|-----------------------------|     |-----------------|
|-----------------------------|     |-----------------|
|-----------------------------|     |------------77-9-|
|-------------7----7-9-7-9-10-|(x4) |-999-101010------| Play after 4th
|-7-9-10-9-10---10------------|     |-----------------| time
|-----------------------------|     |-----------------|


|---------------------------------------------------|
|---------------------------------------------------|
|---------------------------------------------------|
|-------------7----------9-7----7---10----10-9---10-|(x2)
|7--10-9-7-9----10-9-10------10--------10------9----|
|---------------------------------------------------|

    1st ending           2nd ending
|-----------------|      |--------|
|-----------------|      |--------|
|------------77-9-|      |--------|
|-77-99-1010------|      |-7-9-10-|
|-----------------|      |-7-9-10-|
|-----------------|      |-5-7--8-|

Bridge 2:                             Then:
|-----------------------|       |--------------|
|-----------------------|       |--------------|
|-----5-4-2-------------|       |-5-7--7-7-7-8-|
|-2-2-5-4-2-5-5-7-7-5-7-|(x6)   |-5-7--7-7-7-8-|
|-2-2-3-2-0-5-5-7-7-5-7-|       |-3-5--5-5-5-6-|
|-0-0-------3-3-5-5-3-5-|       |--------------|


Chorus.

Bridge 1.
Tap to rate this tab
# A B C D E F G H I J K L M N O P Q R S T U V W X Y Z