Song name
# A B C D E F G H I J K L M N O P Q R S T U V W X Y Z

Misc Unsigned Bands - Silbermond - Cant Remember tab

Help us improve GuitareTab! Take a short survey!
Artist:silbermond
Tabed By:djkissick

this is a german band called silbermond this is all i know of it now
but when i figure the rest i will be sure to post it

intro (speed intermediate)
e|----------------------------------------------|
b|----------------------------------------------|
g|----------------------------------------------|
d|----7----7--------------5----5----------------| x's 2
a|--------------7----7--------------5----5----5-|
E|----------------------------------------------|

verse (distortion)
e|----------------------------------------------|
b|----------------------------------------------|
g|----------------------------------------------|
d|----7----7--------------5----5----------------| x's 2
a|----9----9----7----7----7----7----5----5----5-|
E|--------------9----9--------------7----7----7-|

if you know of this band please email me at djkissick@aol.com

web link:silbermond.de
Related for Silbermond - Cant Remember tab