Song name
# A B C D E F G H I J K L M N O P Q R S T U V W X Y Z

Misc Unsigned Bands - Aherocalledheroin - Get It Right tab

Intro
E------------------------||
 B-----------------------||
 G------------4--4--4----|| x 4
 D---6----4-----2-----2--||
 A-4---2----0------0-----||
 E-----------------------||

Verse
 E--------------------------------||
 B--------------------------------||
 G--------------------4-4-4-4-4-4-|| x10
 D---6-6----4-4-------2-2-2-2-2-2-||
 A---4-4----2-2-------------------||
 E--------------------------------||

Chrs
 E------------------------------------------------||
 B------------------------------------------------||
 G--------------------6-6---6-6-6---6-6-6---6-6-6-|| x4
 D---2-2----4-4-------4-4---4-4-4---4-4-4---4-4-4-||
 A---0-0----2-2-----------------------------------||
 E---0-0------------------------------------------||


Verse 2
 E--------------------------------||
 B--------------------------------||
 G--------------------4-4-4-4-4-4-|| x5
 D---6-6----4-4-------2-2-2-2-2-2-||
 A---4-4----2-2-------------------||
 E--------------------------------||

Chrs 2
 E------------------------------------------------||
 B------------------------------------------------||
 G--------------------6-6---6-6-6---6-6-6---6-6-6-|| x8
 D---2-2----4-4-------4-4---4-4-4---4-4-4---4-4-4-||
 A---0-0----2-2-----------------------------------||
 E---0-0------------------------------------------||

Bridge
 E-----------------------------------------------------------||
 B-----------------------------------------------------------||
 G-----------------------------------------------------------||
 D--4-4---4-4-4---4-4-4---4-4-4---6-6---6-6-6---6-6-6---6-6-6|| x4
 A--2-2---2-2-2---2-2-2---2-2-2---4-4---4-4-4---4-4-4---4-4-4||
 E-----------------------------------------------------------||


Verse 2
 E--------------------------------||
 B--------------------------------||
 G--------------------4-4-4-4-4-4-|| x4
 D---6-6----4-4-------2-2-2-2-2-2-||
 A---4-4----2-2-------------------||
 E--------------------------------||
Tap to rate this tab
# A B C D E F G H I J K L M N O P Q R S T U V W X Y Z