Song name
# A B C D E F G H I J K L M N O P Q R S T U V W X Y Z

Misc Unsigned Bands - The Mid-summer Derby - Is Your Bed Really That Important tab

Help us improve GuitareTab! Take a short survey!
-----------------------------------------------------------------------------
        Is Your Bed Really That Important? - The Mid-Summer Derby
-----------------------------------------------------------------------------Tabbed by: 
Paxton
Email: steversays@gmail.com

Tuning: Standard

The piano part is basically that below but mess around a bit for the verse.
I thought there were 2 guitars in this band...i guess i just dont hear it.

e|-Intro/chorus---------Piano----------9-------9-------9-11-9-end-on-9-------|
B|-----------------------------6-7-6-7---6-7-6---6-7-6-----------------11-9--|
G|-----4---------------------------------------------------------------------|
D|-3-4-4---------------------------------------------------------------------|
A|-3-4-2---------------------------------------------------------------------|
E|-1-2-----------------------------------------------------------------------|

e|-Verse-------Before the 2nd-verse-play this for 2 measures-----------------|
B|---------------------------------------------------------------------------|
G|-4-8-4---------------------------------------------------------------------|
D|-4-8-4-----------------4---------------------------------------------------|
A|-2-6-2-----------------4---------------------------------------------------|
E|-----------------------2---------------------------------------------------|

e|--Bridge-------------------------------------------------------------------|
B|------------6-4-4-2-2------------------------------------------------------|
G|--4--8------8-6-6-4-4------------------------------------4-8---------------|
D|--4--x------8-6-6-4-4------------------------------------4-x---------------|
A|--2--6--x4--6-4-4-2-2---(bass)----------2----build up to-2-6---------------|
E|------------------------------------1-2------------------------------------|

e|--End on-------------------------------------------------------------------|
B|---------------------------------------------------------------------------|
G|--x4-----------------------------------------------------------------------|
D|--x4-----------------------------------------------------------------------|
A|--x2---(mute 3 times)------------------------------------------------------|
E|---------------------------------------------------------------------------|

| /  slide up
| \  slide down
| h  hammer-on
| p  pull-off
| ~  vibrato
| +  harmonic
| x  Mute note
===============================================================================
Related for The Mid-summer Derby - Is Your Bed Really That Important tab