Song name
# A B C D E F G H I J K L M N O P Q R S T U V W X Y Z

Misc Unsigned Bands - 26 Fifty - Kingsly tab

tabbed by: run5home
email: bball10@ne.rr.com

this is one of my band's first songs so check it out

KEY
/ = one strum
x = mute note

INTRO

clean electric
    /            / / / / / / / /  / / / /  / / /  / / / / / / / / /
e|--x---x-x-x-x--x---------------x--------x------x-----------------||
B|--8---x-x-x-x--8---------------10-------8------8-----------------||
G|--x---x-x-x-x--x---------------x--------x------9-----------------||
D|--9---x-x-x-x--9---------------9--------9------10----------------||
A|--10--x-x-x-x--10--------------10-------10-----0-----------------||
E|--x---x-x-x-x--x---------------x--------x------x-----------------||
    / / / /  / / /
e|-x--------x------------||
B|-10-------8------------||
G|-9--------9------------||
D|-10-------10-----------||
A|-0--------0------------||
E|-x--------x------------||

VERSE

    /      / / / / / / / /  / / / /  / / /  / / / / / / / / /
e|--x-----x---------------x--------x------x-----------------||
B|--8-----8---------------10-------8------8-----------------||
G|--x-----x---------------x--------x------9-----------------||
D|--9-----9---------------9--------9------10----------------||
A|--10----10--------------10-------10-----0-----------------||
E|--x-----x---------------x--------x------x-----------------||
    / / / /  / / /
e|-x--------x------------||
B|-10-------8------------||
G|-9--------9------------||
D|-10-------10-----------||
A|-0--------0------------||
E|-x--------x------------||

      REPEAT THIS VERSE OVER THROUGH THE WHOLE SONG

comment, and play it, see how ya like it
Tap to rate this tab
 
# A B C D E F G H I J K L M N O P Q R S T U V W X Y Z